Oops, an error
Loading. Please wait.

10 Mile Stereo Tab

version 1
version 1

Whole song

3,733 views 3 this week
no commentswrite comment
1 2 3 4 5
3 more votes to show rating
add to favorites
launch autoscroll
font size
0
reset
how to read this tab
guitar tuner
Autoscroll
slow
fast
+/-
esc
set tempo
stop
Help us to improve Ultimate-Guitar.com Take our survey!
×
Here is a good way to interpret this song on an acoustic or electric guitar, enjoy:

Intro
e |------------------------------------|
b |----8---8---8---8---8---8---8---8---|
g |---9---9---9---9---9---9---9---9----|
d |-9---9---9---9---9---9---9---9------|
a |------------------------------------|
e |------------------------------------|
(E#m Bar Chord)


Verse
e |--------------------------------------------------------------------|
B |----8---8---8---8---7---7---7---7-----------------------------------|
g |---9---9---9---9---8---8---8---8----6---6---6---6---6---6---6---6---|
d |-9---9---9---9---8---8---8---8-----8---8---8---8---8---8---8---8----|
a |---------------------------------8---8---8---8---8---8---8---8------|
e |--------------------------------------------------------------------|
(Follows an E#m-D#m-A#m progression)

Chorus
              C#       C#      A#m    G#           
e |----9----9----6----4----|
b |----9----9----6----4----|
g |----10---10---6----5----|  x 3  
d |----11---11---8----6----|
a |----11---11---8----6----|
e |----9----9----6----4----|

Then                                               *
              A#m   E#m    A#m  D#m  G#m                        
e |----6----8----6----6---4----|
b |----6----9----6----7---4----|
g |----6---10----6----8---5----|  x 1 *(Half Measurement on Last Two Chords)
d |----8---10----8----8---6----|
a |----8----8----8----6---6----|
e |----6----8----6----6---4----|
(Rhythm is left to your interpretation)

Lyrics
The heart is a stone and this is a stone that we throw
Put your hand on this stone, it's the stone of a home you know
They say we will go far, but they don't know how far we'll go
With our legs on the edge and our feet on the horizon

They say we can throw far but they don't know how far we throw
With our legs on the edge, and our feet on the horizon
The heart is a stone, and this is a stone that we throw
They say we will go far, but they don't know how far we'll go

It can't be gone, we're still right here
It took so long, can't say we heard it all
Limbs parallel, we stood so long we fell
Tear a moment from the days that carry us on forever

This push and pull is the force of a wave of time
In the heat of the night, we would cry, you are not mine
They said we would go far, but they don't know how far we'd go
'cause this heart is a stone, and this is a stone that we throw

It can't be gone, we're still right here
It took so long, can't say we saw it all
Limbs parallel, we stood so long we fell
Tear a moment from the days that carry us on forever

It can't be gone, we're still right here
It took so long, can't say we felt it all
Limbs parallel, we stood so long we fell
Love's like a pantheon, it carries on forever
Suggest correction
Give kudos to tab author, rate the tab!
1 2 3 4 5
comments
print report bad tab
guest
You may want to rate the tab now too:
select rating
Wanna post a correction for this tab? Suggest correction