Oops, an error
Loading. Please wait.

Astronaut Tab

6,049 views 3 this week
1 commentread comment
1 2 3 4 5
excellent!
x 1
add to favorites
launch autoscroll
font size
0
reset
how to read this tab
guitar tuner
Tab Pro tools
  • play this tab
  • loop segment
  • change instrument
  • show fretboard
  • metronome
Autoscroll
slow
fast
+/-
esc
set tempo
stop
the timing isn't quite exact—you have to work out where the lyrics go a bit,
but it's pretty easy to pick up if you listen. This is sort of based on a
video of them doing it live, so it's a little different from the record
version
http://www.beachhousemusic.net/Beach_House/Home.html

Intro:
e|---------------------------------------------------------------------------|
B|-------------------------11------11------11------11--8----11--8------------|
G|-----8----8----8----8-------8-------8-------8------------------------------|
D|--10---10---10---10-----------10------10------10-------10-------10---------|
A|---------------------------------------------------------------------------|
E|---------------------------------------------------------------------------|

e|---------------------------------------------------------------------------|
B|--11--9-------11--9-------11--9--8-------8---------8-----------------------|
G|--------8-----------8--------------8-10----10-8-10---8---------------------|
D|----------10----------10---------------------------------------------------|
A|---------------------------------------------------------------------------|
E|---------------------------------------------------------------------------|
Verse: 
e|---------------------------------------------------------------------------|
B|--11------11------11------11--8----11--8----11--9------11--9---------------|
G|-----8-------8-------8----------------------------8----------8-------------|
D|-------10------10------10-------10-------10---------10---------10----------|
A|---------------------------------------------------------------------------|
E|---------------------------------------------------------------------------|
    Come            over to my house          I'll pour some tea for us, one 

e|---------------------------------------------------------------------------|
B|--11--9--8-------8--------8------------------------------------------------|
G|------------8-10--10-8-10---8----------------------------------------------|
D|---------------------------------------------------------------------------|
A|---------------------------------------------------------------------------|
E|---------------------------------------------------------------------------|
   sugar or two

   Your hand is right in front of me, 
   your finger fragilely, 
   holy on my side
   
   Interlude: same pattern as verse, but w/distortion

   Faster than an astronaut, 
   Who's coming home to what, 
   he left long ago.

   I've made this brand new bed for you,
   I trust the things we do,
   holy or not

next bit:
e|---------------------------------------------------------------------------|
B|---------------------11---------11---------11------------------------------|
G|------8----8----8----------8----------8------------------------------------|
D|---10---10---10---10----10---10----10---10---------------------------------|
A|---------------------------------------------------------------------------|
E|---------------------------------------------------------------------------|
     Open the gate
e|---------------------------------------------------------------------------|
B|---------------------9---------9---------9---------------------------------|
G|------8----8----8---------8---------8--------------------------------------|
D|---10---10---10---10---10---10---10---10-----------------------------------|
A|---------------------------------------------------------------------------|
E|---------------------------------------------------------------------------|
     Cause you're already late
e|---------------------------------------------------------------8-----------|
B|----------------------9----------9----------9---11-------11-------11-------|
G|------10---10---10---------10---------10------------8-------8--------------|
D|---10---10---10----10---10----10---10----10-----10----10-------10----------|
A|---------------------------------------------------------------------------|
E|---------------------------------------------------------------------------|
     At the end of the lane is a glass of lemonade

     Keep on the path 
     when you hear the laugh
     In the white of her palm is your heart 

Then:
e|---------------------------------------------------------------------------|
B|---11/16~--16-16-14-13-16--16-16-14-13-11--11-11-13-11-8-------------------|
G|---------------------------------------------------------------------------|
D|---------------------------------------------------------------------------|
A|---------------------------------------------------------------------------|
E|---------------------------------------------------------------------------|
       I'll  be brave for a while, I won't bring you down, anymore than you are
x2

then:
e|--------------------------------------3-3-3--------------------------------|
B|----4-4-4p3-3-3-------3-3-3h4-4p3-3-3-------3-3-3h4------------------------|
G|----------------5-5-5------------------------------------------------------|
D|---------------------------------------------------------------------------|
A|---------------------------------------------------------------------------|
E|---------------------------------------------------------------------------|
     please be my baby, don't say maybe, or not

     look out the window, there's a bright yellow cat
      
 repeat a bunch and fade

comments
We did not receive enough feedback on this tab! Please rate:
print report bad tab
1 2 3 4 5
1 comment total.
0 reply
huaaaro wrote on September 11 2010, 12:00 am

great tab!

I want to post or [tab]
guest
You may want to rate the tab now too:
select rating
Please do not post tabs as comments. Select "correction" instead!