Oops, an error
Loading. Please wait.

Better Times Tab

49 views 1 this week
no commentswrite comment
1 2 3 4 5
2 more votes to show rating
add to favorites
launch autoscroll
font size
0
reset
how to read this tab
guitar tuner
Autoscroll
slow
fast
+/-
esc
set tempo
stop
Help us to improve Ultimate-Guitar.com Take our survey!
×
Author
Difficulty
Better Times - Beach House (Teen Dream)
Standard Tuning: EADGBe


I want you to know the truth
'Cause I've been around before
Thought I was looking anymore

e|---------------------------------||
B|---------------------------------||
G|---------------------------------||
D|------------3-5-5/7--5-----------|| x2
A|--1--1/3-5--------------3-3h5-3--||
E|---------------------------------||

Been a fool for weeks
'Cause my heart stands for nothing and your soul's too weak

e|------------------------|     e|----------------------|
B|------------------------|     B|----------------------|
G|------------------------|     G|----------------------|
D|------------------------| x3  D|----------------------|
A|--1--1-----------1------|     A|--1--1-----------1----|
E|--------1-3--1/3---3-1--|     E|--------1-3--1/3---1--|

Got a will that's been around for days
Goes far if you want it, it needs to behave

e|---------------3-3----------------||
B|-------3-3---------3-3-----3-3----||
G|-----3-----3-3---------3-3-----3--||
D|--3-------------------------------|| x4
A|----------------------------------||
E|----------------------------------||

But then you, you come around, big mistake
I don't want to know, I don't want to know
We don't need a sign to know better times

e|-----------------------------------------------------------------|
B|-----------------------------------------------------------------|
G|-----------------------------------------------------------------|
D|-------------------------3------------------------------3--------|
A|--5--5-3-5--5-3-5--5-3-5---5-3-5--5-3-5--5-3-5--5-3-3h5---5-3-5--|
E|-----------------------------------------------------------------|

                               A#               Gm
e|-----------------------------------6----------------3----------|
B|---------------------------------6---6------------3---3--------|
G|-------------------------------7-------7---7----3-------3---3--|
D|-----------------------------8-----------8----5-----------5----|
A|--5-3-5--5-3-5--5-3-5-3----------------------------------------|
E|------------------------6-5------------------------------------|

    Dm               D#               Fm7
e|--------5----------------6-----------------8-----------|
B|------6---6------------8-----------------9---9---------|
G|----7-------7---7----8-----8-7-5-------8-------8----8--|
D|--7-----------7----8-------------8--10-----------10----|
A|-------------------------------------------------------|
E|-------------------------------------------------------|

    F7sus2              Fm                    F7sus2              F7sus2
e|---------8--------------------8--------------------8-------------------8-------------||
B|-------8---8----------------9---9----------------8---8---------------8---------------||
G|-----8-------8----8------10-------10----10-----8-------8----8------8-----8-7---------||
D|--10-----------10-----10-------------10-----10-----------10-----10-----------10-8----||
A|-------------------------------------------------------------------------------------||
E|----------------------------------------------------------------------------------6--||

Running around 'cause you beat yourself up
And you made a crack and the one that you love is gone
How much longer can you play with fire before you turn into a liar?

                                                       __
e|----------------------------------------------------|  |
B|----------------------------------------------------|  |
G|-----7/----5/----3/-----2------7/----5/----3/----2--|  |
D|--/8-----7-----5-----/3----3/8-----7-----5-----3----|  |
A|----------------------------------------------------|  |
E|----------------------------------------------------|  |
                                                         | x3
e|----------------------------------------------------|  |
B|----------------------------------------------------|  |
G|------7/----5/----3------5-----7/----5/----3------5-|  |
D|--3/8-----7-----5----5/7----/8-----7-----5----5/7---|  |
A|----------------------------------------------------|  |
E|----------------------------------------------------|__|


e|---------------------------------------------------------||
B|---------------------------------------------------------||
G|------7/----5/----3/-----2------7/----5/----3/----2------||
D|--3/8-----7-----5-----/3----3/8-----7-----5-----3---3/8--||
A|---------------------------------------------------------||
E|---------------------------------------------------------||


I've been around before
Thought you weren't looking anymore

e|---------------3-3----------------||
B|-------3-3---------3-3-----3-3----||
G|-----3-----3-3---------3-3-----3--||
D|--3-------------------------------|| x4
A|----------------------------------||
E|----------------------------------||

But then we, we come and go, go up in smoke
I don't want to know, I don't want to know
We don't need a sign to know better times

e|--------------------------------------------------------------------------------|
B|--------------------------------------------------------------------------------|
G|-------------------------------------------5---2----------3-5-5/7-5-3--7-5------|
D|----3-5--7--5-5--3-5-3------3-5--7--5-5--3---3---3-3/5--5------------------8-7--|
A|--5--------------------5--5-----------------------------------------------------|
E|--------------------------------------------------------------------------------|

    A#               Gm               Dm               D#               Fm7
e|--------6----------------3----------------5----------------6-----------------8-----------|
B|------6---6------------3---3------------6---6------------8-----------------9---9---------|
G|----7-------7---7----3-------3---3----7-------7---7----8-----8-7-5-------8-------8----8--|
D|--8-----------8----5-----------5----7-----------7----8-------------8--10-----------10----|
A|-----------------------------------------------------------------------------------------|
E|-----------------------------------------------------------------------------------------|

    F7sus2              Fm                    F7sus2              F7sus2             F7sus2
e|---------8--------------------8--------------------8-------------------8------------------8------------||
B|-------8---8----------------9---9----------------8---8---------------8---8--------------8---8----------||
G|-----8-------8----8-----10-------10----10-----8--------8----8------8-------8----8-----8-------8----8~--||
D|--10-----------10----10-------------10-----10------------10-----10-----------10----10-----------10-----||
A|-------------------------------------------------------------------------------------------------------||
E|-------------------------------------------------------------------------------------------------------||

 
************************************

| /  Slide up
| h  Hammer-on
| ~  Vibrato

************************************
Suggest correction
Give kudos to tab author, rate the tab!
1 2 3 4 5
comments
print report bad tab
guest
You may want to rate the tab now too:
select rating
Wanna post a correction for this tab? Suggest correction