Oops, an error
Loading. Please wait.

Chariot tab

295 views 6 this week
no commentswrite comment
1 2 3 4 5
3 more votes to show rating
add to favorites
×
Save as Personal and add changes to this tab that will be seen only by you. Learn more ›
×
You can save this tab as Personal to edit and correct it or add notes. All changes will be seen only by you. Learn more »
launch autoscroll
font size
0
reset
how to read this tab
guitar tuner
edit
Autoscroll
slow
fast
+/-
esc
set tempo
stop
About this tab version
I think this is a pretty detailed tab....it has chords for the keyboard sections, tabs for the guitar sections. Interludes, Arpeggios and Solo/Outro included as well. Was this info helpful? Yes No
Eb Tuning... ie. half step down

Stave 12 is the first solo

Stave 13 to 16 is an arpeggio section...the slide transitions are to be subtle and all 3 
bottom strings need
to be barred down to get the sliding effect.

When sliding up from c minor (9th fret) to Bb major(11th fret) hold down on the 9th fret 
and slide slowly


[Stave 1:Intro]
E|--2--4--6--9-----------|
B|--4--5--7--9-----------|
G|--4--4--6--9-----------|
D|--4--6--8--11--13--11--|
A|-----------------------|
E|-----------------------|

[Stave 2:Intro]
E|--------------11----------------------11----------------------11----------------------11-----------|
B|----------12------12--------------12------12--------------12------12--------------12------12-------|
G|------11--------------11------11--------------11------11--------------11------11--------------11---|
D|--13----------------------13----------------------13----------------------13-----------------------|
A|---------------------------------------------------------------------------------------------------|
E|---------------------------------------------------------------------------------------------------|

[Stave 3]
E|--------------11----------------------11--------------------9------------------9--------|
B|----------12------12--------------12------12-------------9-----9------------9-----9-----|
G|------11--------------11------11--------------11------9-----------9------9-----------9--|
D|--13----------------------13----------------------11-----------------11-----------------|
A|----------------------------------------------------------------------------------------|
E|----------------------------------------------------------------------------------------|

[Stave 4:Sunny Day in a chariot]
E|--------------11----------------------11----------------------11----------------------11-----------|
B|----------12------12--------------12------12--------------12------12--------------12------12-------|
G|------11--------------11------11--------------11------11--------------11------11--------------11---|
D|--13----------------------13----------------------13----------------------13-----------------------|
A|---------------------------------------------------------------------------------------------------|
E|---------------------------------------------------------------------------------------------------|

[Stave 5:Were they waving back to you?]
E|--------------11----------------------11--------------------9------------------9--------|
B|----------12------12--------------12------12-------------9-----9------------9-----9-----|
G|------11--------------11------11--------------11------9-----------9------9-----------9--|
D|--13----------------------13----------------------11-----------------11-----------------|
A|----------------------------------------------------------------------------------------|
E|----------------------------------------------------------------------------------------|

[Stave 6:Losing touch, not that much]
E|--------------11----------------------11----------------------11----------------------11-----------|
B|----------12------12--------------12------12--------------12------12--------------12------12-------|
G|------11--------------11------11--------------11------11--------------11------11--------------11---|
D|--13----------------------13----------------------13----------------------13-----------------------|
A|---------------------------------------------------------------------------------------------------|
E|---------------------------------------------------------------------------------------------------|

[Stave 7:She was running back to you, to you No more]
E|--------------11----------------------11--------------------9------------------9--------|
B|----------12------12--------------12------12-------------9-----9------------9-----9-----|
G|------11--------------11------11--------------11------9-----------9------9-----------9--|
D|--13----------------------13----------------------11-----------------11-----------------|
A|----------------------------------------------------------------------------------------|
E|----------------------------------------------------------------------------------------|

[Stave 8:Chords are played on the key board]
But you said that your sweet time is spent
Nobody knows how close it will come
The right of the sands
My heart in your hands
Women chasers, the wives abide
You build a plane to take a land you divide

E|--2--0--0--4--7----2--0--0--4--|
B|--4--0--2--5--7----4--0--2--5--|
G|--4--1--3--6--8----4--1--3--6--|
D|--4--2--4--6--9----4--2--4--6--|
A|--2--2--4--4--9----2--2--4--4--|
E|-------------------------------|

[Stave 9: Arpeggio starts after "To You"]
Women chasers, the wives abide
You build a plane to take a land you divide
A sunny day in their chariot
Were they waving back to you?


E|--2--0--0--4----2--0--0--9-------------9--------|
B|--4--0--2--5----4--0--2--9----------9-----9-----|
G|--4--1--3--6----4--1--3--9-------9-----------9--|
D|--4--2--4--6----4--2--4--11--11-----------------|
A|--2--2--4--4----2--2--4--11---------------------|
E|------------------------------------------------|

[Stave 10]
E|--------------11----------------------11----------------------11----------------------11----------|
B|----------12------12--------------12------12--------------12------12--------------12------12------|
G|------11--------------11------11--------------11------11--------------11------11--------------11--|
D|--13----------------------13----------------------13----------------------13----------------------|
A|--------------------------------------------------------------------------------------------------|
E|--------------------------------------------------------------------------------------------------|

[Stave 11]
E|--------------11----------------------11--------------------9------------------9--|
B|----------12------12--------------12------12-------------9-----9------------9-----|
G|------11--------------11------11--------------11------9-----------9------9--------|
D|--13----------------------13----------------------11-----------------11-----------|
A|----------------------------------------------------------------------------------|
E|----------------------------------------------------------------------------------|

[Stave 12]
E|--------------------------------------------------------|
B|--------------------------------------------------------|
G|--------------------------------------------------------|
D|--6/9--9--9\8--8--8\6--6v--6--6--6--4--4--4--2------1v--|
A|---------------------------7--7--7--6--6--6--4----------|
E|--------------------------------------------------------|

[Stave 1]
The way you chased her, the cadillac
E|--------------11----------11----------11---------------------4--------4--------4----------|
B|------12----------12----------12----------12-----------5--------5--------5--------5-------|
G|--11------11----------11----------11----------11\4--4-----4--------4--------4--------4/6--|
D|------------------------------------------------------------------------------------------|
A|------------------------------------------------------------------------------------------|
E|------------------------------------------------------------------------------------------|

[Stave 14]
Back on the coastline with the sun on his back
E|-----------6--------6--------6-------------------9--------9-----/11--|
B|-----7--------7--------7--------7----------9--------9----------------|
G|--6-----6--------6--------6--------6/9--9-----9--------9-------------|
D|---------------------------------------------------------------------|
A|---------------------------------------------------------------------|
E|---------------------------------------------------------------------|

[Stave 15]
Women chasers, a scarlet lamp
E|--------------11----------11----------11---------------------4--------4--------4----------|
B|------12----------12----------12----------12-----------5--------5--------5--------5-------|
G|--11------11----------11----------11----------11\4--4-----4--------4--------4--------4/6--|
D|------------------------------------------------------------------------------------------|
A|------------------------------------------------------------------------------------------|
E|------------------------------------------------------------------------------------------|

[Stave 16]
He will be taken but they'll all love him back
E|-----------6--------6--------6----------------9--------9--------9-----/11--|
B|-----7--------7--------7--------7-------9--------9--------9----------------|
G|--6-----6--------6--------6--------6/9-----9--------9--------9-------------|
D|---------------------------------------------------------------------------|
A|---------------------------------------------------------------------------|
E|---------------------------------------------------------------------------|

[Stave 17]
A sunny day in their chariot
E|--------------11----------------------11----------------------11----------------------11-----------|
B|----------12------12--------------12------12--------------12------12--------------12------12-------|
G|------11--------------11------11--------------11------11--------------11------11--------------11---|
D|--13----------------------13----------------------13----------------------13-----------------------|
A|---------------------------------------------------------------------------------------------------|
E|---------------------------------------------------------------------------------------------------|

[Stave 18]
Were they waving back to you
E|--------------11----------------------11--------------------9------------------9--------|
B|----------12------12--------------12------12-------------9-----9------------9-----9-----|
G|------11--------------11------11--------------11------9-----------9------9-----------9--|
D|--13----------------------13----------------------11-----------------11-----------------|
A|----------------------------------------------------------------------------------------|
E|----------------------------------------------------------------------------------------|

[Stave 18]
One Last Call, One Last Call
E|--------------11----------------------11----------------------11----------------------11-----------|
B|----------12------12--------------12------12--------------12------12--------------12------12-------|
G|------11--------------11------11--------------11------11--------------11------11--------------11---|
D|--13----------------------13----------------------13----------------------13-----------------------|
A|---------------------------------------------------------------------------------------------------|
E|---------------------------------------------------------------------------------------------------|

[Stave 19]
E|--------------11----------------------11--------------------9------------------9--------|
B|----------12------12--------------12------12-------------9-----9------------9-----------|
G|------11--------------11------11--------------11------9-----------9------9--------------|
D|--13----------------------13----------------------11-----------------11-----------------|
A|----------------------------------------------------------------------------------------|
E|----------------------------------------------------------------------------------------|

[Stave 20:Outro]
E|-------------------------------------------------------------------------------------------|
B|-------------------------------------------------------------------------------------------|
G|--6/8--6\4--4--3--4--3--4/6--6--8--6--8/10--10--11--10\8--8\6--6--8--6\4--4--3--4--3--4/6--|
D|-------------------------------------------------------------------------------------------|
A|-------------------------------------------------------------------------------------------|
E|-------------------------------------------------------------------------------------------|

[Stave 21]
E|------------------------------------------------------------------------------------------------------|
B|------------------------------------------------------------------------------------------------------|
G|--6--8--6--8/10--10--11--10--11/13--13--15--13--15/16--16--18/16--16/15--15/13--13--15--13/11--11/10--|
D|------------------------------------------------------------------------------------------------------|
A|------------------------------------------------------------------------------------------------------|
E|------------------------------------------------------------------------------------------------------|

[Stave 22]
E|---------------------------------|
B|---------------------------------|
G|--10--11--10/8--8/6-----6-----6--|
D|---------------------------------|
A|---------------------------------|
E|---------------------------------|



************************************

| /  Slide up
| \  Slide down
 

************************************

            
            
Suggest correction
Creating personal tab
Creating personal tab
You can edit any tab online and save it as your Personal.

You can edit, replace or remove any tab part or add personal notes – all changes will be seen only by you.

Personal tabs can be accessed anytime from any device, even offline.
Learn more »
Give kudos to tab author, rate the tab!
1 2 3 4 5
comments
print report bad tab
guest
You may want to rate the tab now too:
select rating
Wanna post a correction for this tab? Suggest correction