Oops, an error
Loading. Please wait.

Elegy To The Void tab

version 2
version 2

Whole song

Interactive

817 views 6 this week
no commentswrite comment
1 2 3 4 5
2 more votes to show rating
add to favorites
×
Save as Personal and add changes to this tab that will be seen only by you. Learn more ›
×
You can save this tab as Personal to edit and correct it or add notes. All changes will be seen only by you. Learn more »
launch autoscroll
font size
0
reset
how to read this tab
guitar tuner
edit
Autoscroll
slow
fast
+/-
esc
set tempo
stop
-------------------------------------------------------------------------------
                             Elegy to the Void - Beach House
-------------------------------------------------------------------------------
Tabbed by:majorseventh
E-mail:cwarner3000@gmail.com

Tuning:Tune all strings half step down EbAbDbGbBbeb

Intro
     C
eb|--0-------0-------0-------0------------------------------------------------|
Bb|----1-------1-------1-------1----------------------------------------------|
Gb|------0-------0-------0-------0-----repeatx3-------------------------------|
Db|--------2-------2-------2-------2------------------------------------------|
Ab|--3-------3-------3-------3------------------------------------------------|
Eb|---------------------------------------------------------------------------|

Verse 1
     C                               Em
eb|--0-------0-------0-------0-------0-------0-------0-------0----------------|
Bb|----1-------1-------1-------1-------0-------0-------0-------0--------------|
Gb|------0-------0-------0-------0-------0-------0-------0-------0------------|
Db|--------2-------2-------2-------2-------2-------2-------2-------2----------|
Ab|--3-------3-------3-------3------------------------------------------------|
Eb|----------------------------------0-------0-------0-------0----------------|
  "To your sons and daughters"

     C                               Em
eb|--0-------0-------0-------0-------0-------0-------0-------0----------------|
Bb|----1-------1-------1-------1-------0-------0-------0-------0--------------|
Gb|------0-------0-------0-------0-------0-------0-------0-------0------------|
Db|--------2-------2-------2-------2-------2-------2-------2-------2----------|
Ab|--3-------3-------3-------3------------------------------------------------|
Eb|----------------------------------0-------0-------0-------0----------------|
  "Bending at the altar"
  
     Bb                               F
eb|-----------------------------------1-------1-------1-------1---------------|
Bb|--6-------6-------6-------6----------1-------1-------1-------1-------------|
Gb|----7-------7-------7-------7----------2-------2-------2-------2-----------|
Db|------8-------8-------8-------8----------3-------3-------3-------3---------|
Ab|--------8-------8-------8-------8------------------------------------------|
Eb|--6-------6-------6-------6--------1-------1-------1-------1---------------|
   "Disappearing in the mirror"

     Cadd9                            Em7
eb|---------------------------------------------------------------------------|
Bb|--3p1-----3p1-----3p1-----3p1------3p0-----3p0-----3p0-----3p0-------------|
Gb|------0-------0-------0-------0--------0-------0-------0-------0-----------|
Db|--------2-------2-------2-------2--------2-------2-------2-------2---------|
Ab|--3-------3-------3-------3------------------------------------------------|
Eb|-----------------------------------0-------0-------0-------0---------------|

Verse 2
     C                               Em
eb|--0-------0-------0-------0-------0-------0-------0-------0----------------|
Bb|----1-------1-------1-------1-------0-------0-------0-------0--------------|
Gb|------0-------0-------0-------0-------0-------0-------0-------0------------|
Db|--------2-------2-------2-------2-------2-------2-------2-------2----------|
Ab|--3-------3-------3-------3------------------------------------------------|
Eb|----------------------------------0-------0-------0-------0----------------|
  "Watch it as it burns out.....it is just a flame"

     C                               Em
eb|--0-------0-------0-------0-------0-------0-------0-------0----------------|
Bb|----1-------1-------1-------1-------0-------0-------0-------0--------------|
Gb|------0-------0-------0-------0-------0-------0-------0-------0------------|
Db|--------2-------2-------2-------2-------2-------2-------2-------2----------|
Ab|--3-------3-------3-------3------------------------------------------------|
Eb|----------------------------------0-------0-------0-------0----------------|
  "Freckled face young virgin.....It is just a game"
  
     Bb                               F
eb|-----------------------------------1-------1-------1-------1---------------|
Bb|--6-------6-------6-------6----------1-------1-------1-------1-------------|
Gb|----7-------7-------7-------7----------2-------2-------2-------2-----------|
Db|------8-------8-------8-------8----------3-------3-------3-------3---------|
Ab|--------8-------8-------8-------8------------------------------------------|
Eb|--6-------6-------6-------6--------1-------1-------1-------1---------------|
   "Platinum vision.....Bringing you down again"

     Cadd9                            Em7
eb|---------------------------------------------------------------------------|
Bb|--3p1-----3p1-----3p1-----3p1------3p0-----3p0-----3p0-----3p0-------------|
Gb|------0-------0-------0-------0--------0-------0-------0-------0-----------|
Db|--------2-------2-------2-------2--------2-------2-------2-------2---------|
Ab|--3-------3-------3-------3------------------------------------------------|
Eb|-----------------------------------0-------0-------0-------0---------------|
  "again...and again"

     Cadd9                            Em7
eb|---------------------------------------------------------------------------|
Bb|--3p1-----3p1-----3p1-----3p1------3p0-----3p0-----3p0-----3p0-------------|
Gb|------0-------0-------0-------0--------0-------0-------0-------0-----------|
Db|--------2-------2-------2-------2--------2-------2-------2-------2---------|
Ab|--3-------3-------3-------3------------------------------------------------|
Eb|-----------------------------------0-------0-------0-------0---------------|
  "again...and again"


Verse 3
     C                               Em
eb|--0-------0-------0-------0-------0-------0-------0-------0----------------|
Bb|----1-------1-------1-------1-------0-------0-------0-------0--------------|
Gb|------0-------0-------0-------0-------0-------0-------0-------0------------|
Db|--------2-------2-------2-------2-------2-------2-------2-------2----------|
Ab|--3-------3-------3-------3------------------------------------------------|
Eb|----------------------------------0-------0-------0-------0----------------|
  "Black clock looming distant....You're a great white"

     C                               Em
eb|--0-------0-------0-------0-------0-------0-------0-------0----------------|
Bb|----1-------1-------1-------1-------0-------0-------0-------0--------------|
Gb|------0-------0-------0-------0-------0-------0-------0-------0------------|
Db|--------2-------2-------2-------2-------2-------2-------2-------2----------|
Ab|--3-------3-------3-------3------------------------------------------------|
Eb|----------------------------------0-------0-------0-------0----------------|
  "They were never listening....waiting for the.."
  
     Bb                               F
eb|-----------------------------------1-------1-------1-------1---------------|
Bb|--6-------6-------6-------6----------1-------1-------1-------1-------------|
Gb|----7-------7-------7-------7----------2-------2-------2-------2-----------|
Db|------8-------8-------8-------8----------3-------3-------3-------3---------|
Ab|--------8-------8-------8-------8------------------------------------------|
Eb|--6-------6-------6-------6--------1-------1-------1-------1---------------|
   "light...to come"

     Cadd9                            
eb|---------------------------------------------------------------------------|
Bb|--3p1-----3p1-----3p1-----3p1------3p1-----3p1-----3p1-----3p1-------------|
Gb|------0-------0-------0-------0--------0-------0-------0-------0-----------|
Db|--------2-------2-------2-------2--------2-------2-------2-------2---------|
Ab|--3-------3-------3-------3--------3-------3-------3-------3---------------|
Eb|---------------------------------------------------------------------------|
  "again"


Interlude
 
     F               C               G
eb|--1-------1-------0-------0-------3-------3-------3-------3----------------|
Bb|----1-------1-------1-------1-------3-------3-------3-------3--------------|
Gb|------2-------2-------0-------0-------4-------4-------4-------4------------|
Db|--------3-------3-------2-------2-------5-------5-------5-------5----------|
Ab|------------------3-------3------------------------------------------------|
Eb|--1-------1-----------------------3-------3-------3-------3----------------|
"Deep beneath the waves"

    Bbmaj7           Am7             Em7
eb|--1-------1-------0-------0-------3-------3-------3-------3----------------|
Bb|----3-------3-------1-------1-------3-------3-------3-------3--------------|
Gb|------2-------2-------0-------0-------0-------0-------0-------0------------|
Db|--------3-------3-------2-------2-------2-------2-------2-------2----------|
Ab|--1-------1-------0-------0------------------------------------------------|
Eb|----------------------------------0-------0-------0-------0----------------|
"Lilies of the day"

    Fmaj7            C               G
eb|--0-------0-------0-------0-------3-------3-------3-------3----------------|
Bb|----1-------1-------1-------1-------3-------3-------3-------3--------------|
Gb|------2-------2-------0-------0-------4-------4-------4-------4------------|
Db|--------2-------2-------2-------2-------5-------5-------5-------5----------|
Ab|------------------3-------3------------------------------------------------|
Eb|--1-------1-----------------------3-------3-------3-------3----------------|
"Garden of remains"

    Am               Em              A
eb|--0-------0-------0-------0-------5-------5-------5-------5----------------|
Bb|----1-------1-------0-------0-------5-------5-------5-------5--------------|
Gb|------2-------2-------0-------0-------6-------6-------6-------6------------|
Db|--------2-------2-------2-------2-------7-------7-------7-------7----------|
Ab|--0-------0----------------------------------------------------------------|
Eb|------------------0-------0-------5-------5-------5-------5----------------|
"Diamond maiden chained"

     F               Em
eb|--1-------1-------0-------0------------------------------------------------|
Bb|----1-------1-------0-------0----------------------------------------------|
Gb|------2-------2-------0-------0--------------------------------------------|
Db|--------3-------3-------2-------2------------------------------------------|
Ab|---------------------------------------------------------------------------|
Eb|--1-------1-------0-------0------------------------------------------------|


VERSE 4
     C                               Em
eb|--0-------0-------0-------0-------0-------0-------0-------0----------------|
Bb|----1-------1-------1-------1-------0-------0-------0-------0--------------|
Gb|------0-------0-------0-------0-------0-------0-------0-------0------------|
Db|--------2-------2-------2-------2-------2-------2-------2-------2----------|
Ab|--3-------3-------3-------3------------------------------------------------|
Eb|----------------------------------0-------0-------0-------0----------------|
  "To your sons and daughter"

     C                               Em
eb|--0-------0-------0-------0-------0-------0-------0-------0----------------|
Bb|----1-------1-------1-------1-------0-------0-------0-------0--------------|
Gb|------0-------0-------0-------0-------0-------0-------0-------0------------|
Db|--------2-------2-------2-------2-------2-------2-------2-------2----------|
Ab|--3-------3-------3-------3------------------------------------------------|
Eb|----------------------------------0-------0-------0-------0----------------|
  "Bending at the altar"
  
     Bb                               F
eb|-----------------------------------1-------1-------1-------1---------------|
Bb|--6-------6-------6-------6----------1-------1-------1-------1-------------|
Gb|----7-------7-------7-------7----------2-------2-------2-------2-----------|
Db|------8-------8-------8-------8----------3-------3-------3-------3---------|
Ab|--------8-------8-------8-------8------------------------------------------|
Eb|--6-------6-------6-------6--------1-------1-------1-------1---------------|
   "Don't you disappear in the mirror"

     Cadd9                            Em7
eb|---------------------------------------------------------------------------|
Bb|--3p1-----3p1-----3p1-----3p1------3p0-----3p0-----3p0-----3p0-------------|
Gb|------0-------0-------0-------0--------0-------0-------0-------0-----------|
Db|--------2-------2-------2-------2--------2-------2-------2-------2---------|
Ab|--3-------3-------3-------3------------------------------------------------|
Eb|-----------------------------------0-------0-------0-------0---------------|
"Again....and again"

     Cadd9                            Em7
eb|---------------------------------------------------------------------------|
Bb|--3p1-----3p1-----3p1-----3p1------3p0-----3p0-----3p0-----3p0-------------|
Gb|------0-------0-------0-------0--------0-------0-------0-------0-----------|
Db|--------2-------2-------2-------2--------2-------2-------2-------2---------|
Ab|--3-------3-------3-------3------------------------------------------------|
Eb|-----------------------------------0-------0-------0-------0---------------|
"Again....and again"



(3:30) Outro chords are the same as interlude above but the arpeggio is different

    F               C               G
eb|---------------------------0----------------------------------------------|
Bb|-----------------------1h3---3p1-----------0---------------0--------------|
Gb|--------0h2p0--------0-----------0-----0h2---2p0-------0h2---2p0----------|
Db|------3-------3----------------------0-----------0---0-----------0--------|
Ab|----3-----------3--3------------------------------------------------------|
Eb|--1--------------------------------3---------------3----------------------|
   "Deep beneath the waves"

   Bbmaj7           Am7             Em7
eb|--------------------------0-----------------------------------------------|
Bb|--------1h3p1---------1h3---3p1-----------0---------------0---------------|
Gb|------2-------2-----0-----------0-----0h2---2p0-------0h2---2p0-----------|
Db|----3-----------3-------------------2-----------0---2-----------0---------|
Ab|--1---------------0-------------------------------------------------------|
Eb|----------------------------------0---------------0-----------------------|
   "White winged birds of May"
   "Lilies of the day"

   Fmaj7              C               G
eb|---------------------------0----------------------------------------------|
Bb|-----------------------1h3---3p1-----------0---------------0--------------|
Gb|--------0h2p0--------0-----------0-----0h2---2p0-------0h2---2p0----------|
Db|------3-------3----------------------0-----------0---0-----------0--------|
Ab|----3-----------3--3------------------------------------------------------|
Eb|--1--------------------------------3---------------3----------------------|
   "Run from hollow hills"

    Am               Em              A
eb|----------0---------------------------------------------------------------|
Bb|--------1---1-------------0---------------2---------------2---------------|
Gb|------2-------2---------0---0---------2h4---4p2-------2h4---4p2-----------|
Db|----2-----------2-----2-------2-----2-----------2---2-----------2---------|
Ab|--0-----------------2-----------2-0---------------0-----------------------|
Eb|------------------0-------------------------------------------------------|
   "Walk into the night"



Chords
Elegy to the Void - Beach House

C                     Em
To your sons and daughters
C                  Em
Bending at the altar
Bb                  F
Disappearing in the mirror

C                     Em
Watch it as it burns out (It is just a flame)
C                     Em
Freckle faced young virgin (It is just a game)

Bb              F
Platinum vision Bringing you down 
Cadd9     Em7
again and again
Cadd9     Em7
Again and again

C                        Em
Black clock looming distant, (You're a great white)
C                     Em
They were never listening, Waiting for the
Bb       F
light to come 
Cadd9 
again


F      C         G
Deep beneath the waves
Bbmaj7 Am7    Em7
Lilies of the day
Fmaj7  C     G
Garden of remains
Am      Em     A
Diamond maiden chained

F   Em

C                Em
To your sons and daughters
C               Em
Bending at the altar
Bb             F
Don't you disappear in the mirror
Cadd9     Em7
again and again
Cadd9     Em7
Again and again

F      C         G
Deep beneath the waves
Bbmaj7 Am7    Em7
White-winged birds of May
Fmaj7  C     G
Run from hollow hills
Am      Em     A
Walk into the night

F      C         G
Deep beneath the waves
Bbmaj7 Am7    Em7
Lilies of the day
Fmaj7  C     G
Run from hollow hills
Am      Em     A
Walk into the night

************************************

| /   slide up
| \   slide down
| h   hammer-on
| p   pull-off
| ~   vibrato
| +   harmonic
| x   Mute note
| b   Bend
| pb  Pre-bend
| br  Bend release
| pbr Pre-bend release
| brb Bend release bend

************************************

            
            
Suggest correction
Creating personal tab
Creating personal tab
You can edit any tab online and save it as your Personal.

You can edit, replace or remove any tab part or add personal notes – all changes will be seen only by you.

Personal tabs can be accessed anytime from any device, even offline.
Learn more »
Give kudos to tab author, rate the tab!
1 2 3 4 5
comments
print report bad tab
guest
You may want to rate the tab now too:
select rating
Wanna post a correction for this tab? Suggest correction