Oops, an error
Loading. Please wait.

Gila Tab

version 1
version 1

Intro

Whole song

6,403 views 12 this week
4 commentsread comments
1 2 3 4 5
accurate
x 5
add to favorites
launch autoscroll
font size
0
reset
how to read this tab
guitar tuner
Tab Pro tools
  • play this tab
  • loop segment
  • change instrument
  • show fretboard
  • metronome
Autoscroll
slow
fast
+/-
esc
set tempo
stop
Contributor
Difficulty
novice
Song: Gila
Artist: Beach House
Tabbed by: littlejoy
Date: 7/7/09

    Hey guys I just listened to the song multiple times, and this is what SEEMS 100% 
to me. Please go easy on me, seeing as this is my first tab. Feel free to add 
Thanks!

/=slides

Oh and listen to the song for the timing.

e-----------------------------------------------------------------------------|
B-----------------------------------------------------------------------------|
G--------------------------------------------------------7----7------10----10-|
D-----------------------------------------------8-7---7-----------------------|
A--------------8-10-10/12-12-12-10-8--------8-------8---8---8---8/12---12-----|
E-5--5/10-10-------------------------10--10-----------------------------------|


e----------------------------------------------------------------------------|
B----------------------------------------------------------------------------|
G-----------14----14-------14-----------12--------10-------------------------|
D----------------------------------------------------------------------------|
A-12--12/15----15----13/15--------15/13-----13/12----------------------------|
E----------------------------------------------------------------------------|

Cheers, fellow Beach House fans!
comments
print report bad tab
4 comments total. Showing first comments.
0 reply
chriskoolaid wrote on April 23 2010, 02:30 am

Personally I think this thing is spot on. Great job bud.

0 reply
chriskoolaid wrote on April 23 2010, 10:38 pm

During the Gi-la-a a-a a part of the chorus I believe the background riff is as follows, I'm about 90% sure of the A note on the B string.

e---------13--13-------------------------------------------|
B--10-10----10--10-----------------------------------------|
G----------------------------------------------------------|
D----------------------------------------------------------|
A----------------------------------------------------------|
E----------------------------------------------------------|

+1 reply
chriskoolaid wrote on April 23 2010, 10:39 pm

Sorry, dumbass moment.

Correction to my above post*
And it's a F note.

e---------13--13-------------------------------------------|
B----------------------------------------------------------|
G--10-10----10--10-----------------------------------------|
D----------------------------------------------------------|
A----------------------------------------------------------|
E----------------------------------------------------------|

I want to post or [tab]
guest
You may want to rate the tab now too:
select rating
Please do not post tabs as comments. Select "correction" instead!