Oops, an error
Loading. Please wait.

Gila Tab

version 1
version 1

Whole song

20,655 views 42 this week
no commentswrite comment
1 2 3 4 5
x 17
add to favorites
launch autoscroll
font size
0
reset
how to read this tab
guitar tuner
Autoscroll
slow
fast
+/-
esc
set tempo
stop
Help us to improve Ultimate-Guitar.com Take our survey!
×
Author
Difficulty
intermediate
Gila - Beach House
Tabbed by: spencerr216
Tuning: standard

UG had no full length tabs for this song so here it is! once again, i'm very certain 
tab is 100% accurate! enjoi...

[Intro] 0:06
e|---------------------------------------------------------------------------|
B|---------------------------------------------------------------------------|
G|---------------------------------------------------------------------------|
D|-------------------------------------------8-7-----7-----------------------|
A|------------8-10-10/12-12-12-10-8--------8------10-------------------------|
E|-5--/10--10-----------------------10--10-----------------------------------|

e|---------------------------------------------------------------------------|
B|---------------------------------------------------------------------------|
G|---7---7------10----10-------14----14-------14-------12--------------------|
D|---------------------------------------------------------------------------|
A|-8---8---8/12----12----12/15----15----13/15----15\13----13\12--------------|
E|---------------------------------------------------------------------------|

[Verse 1] 0:25 / 2x
e|---------------------------------------------------------------------------|
B|---------------------------------------------------------------------------|
G|----12-----12-------15-----------------------------------------------------|
D|---------------------------------------------------------------------------|
A|-13-----13----13/17-----17\------------------------------------------------|
E|---------------------------------------------------------------------------|

[Verse 2] 0:36 / 2:11 / 2x
e|---------------------------------------------------------------------------|
B|---------------------------------------------------------------------------|
G|-----10-10-----10-------14-14-----14-------12-12-----12-------9-9-----9----|
D|---------------------------------------------------------------------------|
A|-12---------12----12/15--------15----15\13--------13----13\10------10---10/|
E|---------------------------------------------------------------------------|

[Pre-Chorus] 0:51 / 2:26
e|---------------------------------------------------------------------------|
B|---------------------------------------------------------------------------|
G|-----9-----9-----9-----9------10---9---------------------------------------|
D|-6/7----7-----7-----7-----7/8----8----8--/12-10--------10------------------|
A|-------------------------------------------------11h12---------------------|
E|---------------------------------------------------------------------------|

[Chorus 1] 0:58
e|---------------------------------------------------------------------------|
B|---------------------------------------------------------------------------|
G|-------10------10------10------10--------10------10------10------12--------|
D|---------------------------------------------------------------------------|
A|-11h12-----12------12------12------11h12-----12------12------12------------|
E|---------------------------------------------------------------------------|

e|---------------------------------------------------------------------------|
B|---------------------------------------------------------------------------|
G|-------9------9------9------9--------9------9------9------9----------------|
D|---------------------------------------------------------------------------|
A|-11h12----12-----12-----12-----11h12----12-----12-----12-------------------|
E|---------------------------------------------------------------------------|

[Chorus 2] 1:12 / 2:48 / 16x / 3:55-4:46
e|---------------------------------------------------------------------------|
B|---------18------18--------------------------------------------------------|
G|---------------------------------------------------------------------------|
D|-/15-15------15------------------------------------------------------------|
A|---------------------------------------------------------------------------|
E|---------------------------------------------------------------------------|

[Intro Reprise] 1:41
e|---------------------------------------------------------------------------|
B|---------------------------------------------------------------------------|
G|---------------------------------------------------------------------------|
D|-------------------------------------------8-7-----7-----------------------|
A|------------8-10-10/12-12-12-10-8--------8------10-------------------------|
E|-5--/10--10-----------------------10--10-----------------------------------|

e|---------------------------------------------------------------------------|
B|---------------------------------------------------------------------------|
G|----7-----7\4----4-----4------7-----7-------9--------9---------------------|
D|---------------------------------------------------------------------------|
A|-8-----8------5-----5-----5/8----8-----8/10----(10)------------------------|
E|---------------------------------------------------------------------------|

[Verse 2]
e|---------------------------------------------------------------------------|
B|---------------------------------------------------------------------------|
G|-----10-10-----10-------14-14-----14-------12-12-----12-------9-9-----9----|
D|---------------------------------------------------------------------------|
A|-12---------12----12/15--------15----15\13--------13----13\10------10---10/|
E|---------------------------------------------------------------------------|

[Pre-Chorus] 0:51 / 2:26
e|---------------------------------------------------------------------------|
B|---------------------------------------------------------------------------|
G|-----9-----9-----9-----9------10---9---------------------------------------|
D|-6/7----7-----7-----7-----7/8----8----8--/12-10--------10------------------|
A|-------------------------------------------------11h12---------------------|
E|---------------------------------------------------------------------------|

[Chorus] 2:34
e|---------------------------------------------------------------------------|
B|---------------------------------------------------------------------------|
G|-------10------10------10------10--------10------10------10------12--------|
D|---------------------------------------------------------------------------|
A|-11h12-----12------12------12------11h12-----12------12------12------------|
E|---------------------------------------------------------------------------|

e|---------------------------------------------------------------------------|
B|---------------------------------------------------------------------------|
G|-------9------9------9------9--------9------9--------9----9----------------|
D|-----------------------------------------------10h11---10---10h11----------|
A|-11h12----12-----12-----12-----11h12----12---------------------------------|
E|---------------------------------------------------------------------------|

[Chorus 2]
e|---------------------------------------------------------------------------|
B|---------18------18--------------------------------------------------------|
G|---------------------------------------------------------------------------|
D|-/15-15------15------------------------------------------------------------|
A|---------------------------------------------------------------------------|
E|---------------------------------------------------------------------------|

[Intro Reprise] 3:18
e|---------------------------------------------------------------------------|
B|---------------------------------------------------------------------------|
G|---------------------------------------------------------------------------|
D|-------------------------------------------8-7---10------------------------|
A|------------8-10-10/12-12-12-10-8--------8---------------------------------|
E|-5--/10--10-----------------------10--10-----------------------------------|

[Interlude] 3:25 / 4x
e|---------------------------------------------------------------------------|
B|---------------------------------------------------------------------------|
G|-10-----------10--9-------10-----------------------------------------------|
D|-----12-----------------------10-----------------10------------------------|
A|---------12----------12-----------10--12--12--12----10---------------------|
E|---------------------------------------------------------------------------|

Chorus 2... (just play until the song ends.)
e|---------------------------------------------------------------------------|
B|---------18------18--------------------------------------------------------|
G|---------------------------------------------------------------------------|
D|-/15-15------15------------------------------------------------------------|
A|---------------------------------------------------------------------------|
E|---------------------------------------------------------------------------|

************************************

| /    Slide up
| \    Slide down
| h    Hammer-on
| (n)  Ghost note

************************************
Suggest correction
comments
print report bad tab
guest
You may want to rate the tab now too:
select rating
Wanna post a correction for this tab? Suggest correction