Oops, an error
Loading. Please wait.

Lazuli Tab

version 1
version 1

Whole song

Interactive

7,903 views 42 this week
no commentswrite comment
1 2 3 4 5
excellent!
x 9
add to favorites
launch autoscroll
font size
0
reset
how to read this tab
guitar tuner
Autoscroll
slow
fast
+/-
esc
set tempo
stop
Help us to improve Ultimate-Guitar.com Take our survey!
×
Contributor
Radiobuzz 459
Intro: D, F#m x2 C#m

D         F#m  C#m     D
   In the blue of this life
D         F#m  C#m     D
   Where it ends in the night
A           Bm
   When you couldn't see
A            Bm
   You would come for me


D, F#m x2 C#m


D         F#m  C#m     D
   Wonder eyes motion high

D              F#m  C#m     D
   and I don't care slip on by
A           Bm
   Make us suffer
A           Bm
   Like no other

E
   It's nothing like
      D    A
Lapis Lazuli
Bm
  Let it go
        E
Back to me

D, F#m x 2
D, Bm (hold this last note for a couple of bars)
D, Bm, G, Bm,
D, Bm, G
D, Bm, G

Bm
Like no other
D           G       Em
You can be replaced

Bm
Like no other
F#m          G      Em
You can be replaced

The arpeggio for the end:

e|------14---------------14---------------9--------------9---------|
B|--15------15-------14------14------12------12------10-----10-----|
G|--------------14--------------14---------------11-------------11-|
D|-----------------------------------------------------------------|
A|-----------------------------------------------------------------|
E|-----------------------------------------------------------------|

-----7-----------7-----------7----------7---------|
--8-----8-----8-----8-----7-----7----7-----7------|
-----------7-----------7----------7-----------7---|
--------------------------------------------------|
--------------------------------------------------|
--------------------------------------------------|
comments
print report bad tab
I want to post or [tab]
guest
You may want to rate the tab now too:
select rating
Please do not post tabs as comments. Select "correction" instead!