Oops, an error
Loading. Please wait.

Lover Of Mine Tab

8,540 views 51 this week
1 commentread comment
1 2 3 4 5
excellent!
x 5
add to favorites
launch autoscroll
font size
0
reset
how to read this tab
guitar tuner
Tab Pro tools
  • play this tab
  • loop segment
  • change instrument
  • show fretboard
  • metronome
Autoscroll
slow
fast
+/-
esc
set tempo
stop
Contributor
Difficulty
novice
Artist: Beach House
Title: Lover of Mine
Album: Teen Dream

Tuning: (low to high) E A D G B E

Tabbed by: FireReaverX


Main theme
E|---------------8---------------------|
B|------8---10-------10---8------8---8-|
G|-7-h9---9----9---9----9---7-h9---7---|
D|-------------------------------------| (repeat until verse)
A|-------------------------------------|
E|-------------------------------------|


Verse 1 (keyboard arranged for guitar)
E|---------------------------------|
B|-6-----5---------3-----1---------|
G|-7-----5---------4-----2---------|
D|-9-----7---------5-----3---------| 4x
A|---------------------------------|
E|---------------------------------|


Pre-chorus
E|-------10----------12-------|
B|----10----------12----12----|
G|-10-------10/12----------12-|
D|----------------------------| 6x
A|----------------------------|
E|----------------------------|

E|------8------8-------------------------|
B|---10-----10-----10--------------------|
G|-9------9------9----/12---10-9---7-----|
D|---------------------------------------|
A|---------------------------------------|
E|---------------------------------------|


Chorus (main theme)


Verse 2
E|-------------------------------------|
B|-------------------------------------|
G|-------------------------------------|
D|-------------------------------------|
A|-5-5-5-3-3-3-3-3-/10-10-10-8-8-8-8-8-|
E|-------------------------------------|
PM . . . . . . . .   .  .  . . . . . .


Pre-chorus
Chorus


Bridge
E|---------------------------------|
B|-5---5---5---5---5---5---5---5---|
G|---------------------------------|
D|---5---5---5---5---5---5---5---5-| 2x
A|---------------------------------|
E|---------------------------------|

E|-------------------------------------------------|
B|-5---5-3---3-------------------------------------|
G|-------------5---5-4---4-2---2-5---5-2---2-5---5-|
D|---5-----5-----5-----5-----3-----3-----3-----3---|
A|-------------------------------------------------|
E|-------------------------------------------------|
                                                     2x
E|-------------------------------------------------|
B|-------------------------------5-----------5-----|
G|-7---7-5---5-4---4-2---2-4---4-----4-4---4-----4-|
D|---5-----5-----5-----3-----5-----5-----5-----5---|
A|-------------------------------------------------|
E|-------------------------------------------------|


Outro
E|-8-------------------8-----------------------------------------------------|
B|---10---8-----8-8h10---10---8-----8-10------8------8-----------------------|
G|------9-----9-------------9-----9------7-h9---7-h9---7-7h9-7---7---7---7---|
D|---------------------------------------------------------------------------| 6x
A|---------------------------------------------------------------------------|
E|---------------------------------------------------------------------------|


| /  slide up
| h  hammer-on
| .  palm mute
=============================================================================
comments
print report bad tab
1 comment total.
0 reply
mxerscott wrote on December 3 2012, 11:26 pm

this is awesome!

I want to post or [tab]
guest
You may want to rate the tab now too:
select rating
Please do not post tabs as comments. Select "correction" instead!