Oops, an error
Loading. Please wait.

Master Of None tab

718 views 12 this week
no commentswrite comment
1 2 3 4 5
2 more votes to show rating
add to favorites
×
Save as Personal and add changes to this tab that will be seen only by you. Learn more ›
×
You can save this tab as Personal to edit and correct it or add notes. All changes will be seen only by you. Learn more »
launch autoscroll
font size
0
reset
how to read this tab
guitar tuner
edit
Autoscroll
slow
fast
+/-
esc
set tempo
stop
Author
This whole song is basically played with a slide except for the first part. The guitar is pretty faint 
throughout the song so i had to base this tab on the live performances for the most part

Part 1 (intro)

e|--------------------------------------------------------------------------------------|
B|--------------------------------------------------------------------------------------|
G|-9----9----10----10----14-----14---------14-----10----10----9----9----5---5-------5---|
D|---10---10----10----10-----15----15---15----15-----10----10---10---10---7---7---7---7-|
A|--------------------------------------------------------------------------------------|
E|--------------------------------------------------------------------------------------|

e|------------------------------------------------------------------------------------|
B|------------------------------------------------------------------------------------|
G|-10----10----10----10----14----14---------14----10----10----9----9----10----10------|
D|----10----10----10----10----16----16---16----16----10----10---10---10----10----10---|
A|------------------------------------------------------------------------------------|
E|------------------------------------------------------------------------------------|


Part 2 (verse) repeat twice

its impossible to hear a real clear picking pattern for this so you just have to get a feel for it. just
wiggle the slide around the 10th fret and play the D, G, and B string and it should sound ok

e|--------------------|
B|--10----------------|
G|-----10-------------|
D|--------10----------|
A|--------------------|
E|--------------------|

"on your knees..."

e|------------------------------------------------------------|
B|--------------------18\15-13-13/10------10------------------|
G|-15--14-14-14/18-18-----------------10-----10---------------|
D|----------------------------------------------10------------|
A|------------------------------------------------------------|
E|------------------------------------------------------------|


Part 3

e|---------------------------------------------------------------------------|
B|---------------------------------------------------------------------------|
G|---------------------------------------------------------------------------|
D|---------------------------------------------------------------------------|
A|-7---8-8-8/12-12---7---8--8-8----7--8-8-8/12-12----7--8-5-3----------------|
E|---------------------------------------------------------------------------|

repeat part 2 twice


Part 4 ("jack of all trades..")

e|---------------------------------------------------------------------------|
B|---------------------------------------------------------------------------|
G|---------------------------------------------------------------------------|
D|---------------------------------------------------------------------------|
A|----------------12/10-10-10-10-10/8-8-8-8-8-8\10-10-10-10-10-10\-----------|
E|-12-12-12-12-12------------------------------------------------------------|


finish on part 2



************************************

| x   Dead note
| g   Grace note
| (n) Ghost note
| h   Hammer-on
| p   Pull-off
| r   Release
| >   Accented note
| t   Tapping
| b   Bend
| br  Bend release
| pb  Pre-bend
| pbr Pre-bend release
| /   Slide up
| \   Slide down
| ~   Vibrato
| s   Slap
| P   Pop
| PM  Palm mute
| TR  Trill
| N   Tremolo

************************************
Suggest correction
Creating personal tab
Creating personal tab
You can edit any tab online and save it as your Personal.

You can edit, replace or remove any tab part or add personal notes – all changes will be seen only by you.

Personal tabs can be accessed anytime from any device, even offline.
Learn more »
Give kudos to tab author, rate the tab!
1 2 3 4 5
comments
print report bad tab
guest
You may want to rate the tab now too:
select rating
Wanna post a correction for this tab? Suggest correction