Oops, an error
Loading. Please wait.

Myth Tab

27,412 views 102 this week
no commentswrite comment
1 2 3 4 5
excellent!
x 16
add to favorites
launch autoscroll
font size
0
reset
how to read this tab
guitar tuner
Tab Pro tools
  • play this tab
  • loop segment
  • change instrument
  • show fretboard
  • metronome
×
Best way to learn
"Myth"
Autoscroll
slow
fast
+/-
esc
set tempo
stop
Contributor
Tuning
D# G# C# F# A# D#
-------------------------------------------------------------------------------
                             MYTH - Beach House
-------------------------------------------------------------------------------
Inspired by : http://www.youtube.com/watch?v=8N-dIK_hVqU

Adjusted on this live : http://www.youtube.com/watch?v=H0MOcMPB5RQ

Tuning:Eb Ab Db Gb Bb Eb (1/2 step down)

       x12     x2    x2    x16
---12--|----11-|---9-|---7-|----------------------|
-------|-------|-----|-----|----------------------|
-13----|-11----|-9---|-8---|----------------------|
-------|-------|-----|-----|----------------------|
-------|-------|-----|-----|----------------------|
-------|-------|-----|-----|----------------------|

       x12     x2    x2    x12     x2    x2
---12--|----11-|---9-|---7-|----11-|---7-|--------|
-------|-------|-----|-----|-------|-----|--------|
-13----|-11----|-9---|-8---|-11----|-8---|--------|
-------|-------|-----|-----|-------|-----|--------|
-------|-------|-----|-----|-------|-----|--------|
-------|-------|-----|-----|-------|-----|--------|
                                                        
     x8    x4      x4     x8     x8 
---5-|---7-|----11-|---12-|---11-|----------------|
-----|-----|-------|------|------|----------------|
-6---|-8---|-11----|-13---|-13---|----------------|
-----|-----|-------|------|------|----------------|
-----|-----|-------|------|------|----------------|
-----|-----|-------|------|------|----------------|




       x12     x2    x2    x16
---12--|----11-|---9-|---7-|----------------------|
-------|-------|-----|-----|----------------------|
-13----|-11----|-9---|-8---|----------------------|
-------|-------|-----|-----|----------------------|
-------|-------|-----|-----|----------------------|
-------|-------|-----|-----|----------------------|

       x12     x2    x2    x12     x2    x2
---12--|----11-|---9-|---7-|----11-|---7-|--------|
-------|-------|-----|-----|-------|-----|--------|
-13----|-11----|-9---|-8---|-11----|-8---|--------|
-------|-------|-----|-----|-------|-----|--------|
-------|-------|-----|-----|-------|-----|--------|
-------|-------|-----|-----|-------|-----|--------|
                                                        
     x8    x4      x4     x8     x8 
---5-|---7-|----11-|---12-|---11-|----------------|
-----|-----|-------|------|------|----------------|
-6---|-8---|-11----|-13---|-13---|----------------|
-----|-----|-------|------|------|----------------|
-----|-----|-------|------|------|----------------|
-----|-----|-------|------|------|----------------|




       x12     x2    x2    x16
---12--|----11-|---9-|---7-|----------------------|
-------|-------|-----|-----|----------------------|
-13----|-11----|-9---|-8---|----------------------|
-------|-------|-----|-----|----------------------|
-------|-------|-----|-----|----------------------|
-------|-------|-----|-----|----------------------|

       x12     x2    x2    x12     x2    x2
---12--|----11-|---9-|---7-|----11-|---7-|--------|
-------|-------|-----|-----|-------|-----|--------|
-13----|-11----|-9---|-8---|-11----|-8---|--------|
-------|-------|-----|-----|-------|-----|--------|
-------|-------|-----|-----|-------|-----|--------|
-------|-------|-----|-----|-------|-----|--------|
                                                        

    x8    x4      x4     x14      
---5-|---7-|----11-|---12-|-----------------------|
-----|-----|-------|------|-----------------------|
-6---|-8---|-11----|-13---|-13--------------------|
-----|-----|-------|------|-----------------------|
-----|-----|-------|------|-----------------------|
-----|-----|-------|------|-----------------------|


 
-5--4--4--4---------------------------------------|
-5--4--5--4---------------------------------------|
-6--4--4--6---------------------------------------|
-7--4--6--6---------------------------------------|
----------4---------------------------------------|
--------------------------------------------------|

-5--4--4------------------------------------------|
-5--4--5------------------------------------------|
-6--4--4------------------------------------------|
-7--4--6------------------------------------------|
--------------------------------------------------|
--------------------------------------------------|

-5--4--4--4---------------------------------------|
-5--4--5--4---------------------------------------|
-6--4--4--6---------------------------------------|
-7--4--6--6---------------------------------------|
----------4---------------------------------------|
--------------------------------------------------|

-5--4--4--4---------------------------------------|
-5--4--5--4---------------------------------------|
-6--4--4--4---------------------------------------|
-7--4--6--4---------------------------------------|
--------------------------------------------------|
--------------------------------------------------|


       x32  
----12-|------------------------------------------|
-------|------------------------------------------|
-13----|------------------------------------------|
-------|------------------------------------------|
-------|------------------------------------------|
-------|------------------------------------------|

       x12     x2    x2    x16
---12--|----11-|---9-|---7-|----------------------|
-------|-------|-----|-----|----------------------|
-13----|-11----|-9---|-8---|----------------------|
-------|-------|-----|-----|----------------------|
-------|-------|-----|-----|----------------------|
-------|-------|-----|-----|----------------------|

       x12     x2    x2    x12     x2    x2
---12--|----11-|---9-|---7-|----11-|---7-|--------|
-------|-------|-----|-----|-------|-----|--------|
-13----|-11----|-9---|-8---|-11----|-8---|--------|
-------|-------|-----|-----|-------|-----|--------|
-------|-------|-----|-----|-------|-----|--------|
-------|-------|-----|-----|-------|-----|--------|
                                                        
     x8    x4      x4     x8     x8 
---5-|---7-|----11-|---12-|---11-|----------------|
-----|-----|-------|------|------|----------------|
-6---|-8---|-11----|-13---|-13---|----------------|
-----|-----|-------|------|------|----------------|
-----|-----|-------|------|------|----------------|
-----|-----|-------|------|------|----------------|

Tremolo picking :
            
e|-7----5-4-2-4---7-5-4-2-4----7----5-4-2-4---7-5-4-2-4---7-9-4--|
B|---------------------------------------------------------------|
G|---------------------------------------------------------------|
D|---------------------------------------------------------------|
A|---------------------------------------------------------------|
E|---------------------------------------------------------------|

e|-7-9-11-12-9----17-16-14-12-11----17-16-14-12-----11----11/0---|
B|---------------------------------------------------------------|
G|---------------------------------------------------------------|
D|---------------------------------------------------------------|
A|---------------------------------------------------------------|
E|---------------------------------------------------------------|
comments
print report bad tab
I want to post or [tab]
guest
You may want to rate the tab now too:
select rating
Please do not post tabs as comments. Select "correction" instead!