Oops, an error
Loading. Please wait.

Norway Tab

version 2
version 2

Intro

  • Used Different Notes and Patterns. Also found mult... Show more

Whole song

31 views 3 this week
1 commentread comment
1 2 3 4 5
x 3
add to favorites
launch autoscroll
font size
0
reset
how to read this tab
guitar tuner
Autoscroll
slow
fast
+/-
esc
set tempo
stop
Help us to improve Ultimate-Guitar.com Take our survey!
×
Author
About this tab version
Used Different Notes and Patterns. Also found multiple ways to play it with either 1 or 2 guitar players. Accuracy is very close to the studio recording. Was this info helpful? Yes No
Intro, Repeat ( Not sure how many times, just listen to the song/figure out the rhythm)


e|------8-------8-------8--------|------8-------8------8------------------|
B|----6-------6-------6------6-6-|----5-------5------5-------5-5----------|
G|--/7-------7------7------7-----|--5-------5-------5------5--------------|
D|-------------------------------|----------------------------------------|1st and 2nd shape
A|-------------------------------|----------------------------------------|
E|-------------------------------|----------------------------------------|

|
e|----.--5----------5----------5-------------------------------------|
B|-----6---------6----------6-------6-6------------------------------|
G|---3-------3----------3--------3-----------------------------------|
D|-------------------------------------------------------------------|  3rd shape ( 2different ways)
A|-------------------------------------------------------------------|
E|-------------------------------------------------------------------|


e|------5---------5----------5---------------------------------------|
B|----5---------5----------5------5-5--------------------------------|
G|--5--------5----------5------5-------------------------------------|4th shape
D|-------------------------------------------------------------------|
A|-------------------------------------------------------------------|
E|-------------------------------------------------------------------|


or possibly just

e|--------5-------------5--------------5---------------------------|
B|------3-------------3-------------3--------3--3------------------|
G|----3------------3-------------3--------3------------------------| third shape may belike this
D|-----------------------------------------------------------------| also. It is up to the player
A|-----------------------------------------------------------------| both sound nice
E|-----------------------------------------------------------------|


e|--------5-------------5--------------5---------------------------|
B|------6-------------6-------------6--------6--6------------------|
G|----8------------8-------------8--------8------------------------| third shape may also be like this
D|-----------------------------------------------------------------| also. Like the live shape
A|-----------------------------------------------------------------| 
E|-----------------------------------------------------------------|
Intro, Repeat 4x

Bass/low notes on the g string:you can slide into the first note of each pattern to give
a moving feel

Hopefully you enjoy this-Andrew! (Notes that repeat on same string are very quick/grace
notes) ie 5-5 on the B

e|---------------------------------------------------------------|
B|---------13----------------------------------------------------|
G|-----10--------------------------------------------------------|
D|--/12-----------12---------------------------------------------|
A|---------------------------------------------------------------|
E|---------------------------------------------------------------|

e|---------------------------------------------------------------|
B|---------13----------------------------------------------------|
G|------9--------------------------------------------------------|
D|---10--------10------------------------------------------------|
A|---------------------------------------------------------------|
E|---------------------------------------------------------------|


e|---------------------------------------------------------------|
B|--------10-----------------------------------------------------|
G|-----7---------------------------------------------------------|
D|---8------------8----------------------------------------------| 3rd shape 2nd way transposed
A|---------------------------------------------------------------|   ( G string 10th fret for first way)
E|---------------------------------------------------------------|


e|---------------------------------------------------------------|
B|---------10----------------------------------------------------|
G|------9--------------------------------------------------------|
D|---10----------10----------------------------------------------|
A|---------------------------------------------------------------|
E|---------------------------------------------------------------|

NOTE* This is actually a two guitar song. The intro would be as follows:

Guitar 1 Quarter Notes
e|-----------------|----------------|------------|------------------|
B|-----------------|----------------|------------|------------------|
G|-----------------|----------------|------------|------------------|
D|--12--12--12--12-|-10--10--10--10-|-8--8--8--8-|-10--10--10-10----|
A|-----------------|----------------|------------|------------------|
E|-----------------|----------------|------------|------------------|

Guitar 2
e|----------8-----------8----------8------------8------------------|
B|-------6-----------6----------6------------6---------------------|
G|---5h7--------5h7--------5h7----------5h7------------------------|
D|-----------------------------------------------------------------|
A|-----------------------------------------------------------------|
E|-----------------------------------------------------------------|

e|------5---------5----------5-------5-------------------------------|
B|----5---------5----------5------5----------------------------------|
G|--/5--------5----------5------5------------------------------------|
D|-------------------------------------------------------------------|
A|-------------------------------------------------------------------|
E|-------------------------------------------------------------------|

| /   Slide up
| h   Hummer-on
Suggest correction
Give kudos to tab author, rate the tab!
1 2 3 4 5
comments
print report bad tab
1 comment total.
0 reply
akirk93 38 Nov 06, 2016 10:16 AM, edited at 10:17 am

Not sure why this is not 5 stars, I put alot of time into getting this right. If you listen closely there are two guitar parts on the studio recording. Live is a different story and combines the patterns I wrote for one guitar only. If you can get the picking pattern down right this will sound great. The other tab on this site that has the full song has the verses/chorus is mostly correct, but the intro is definitely off. I believe this was rated down because of a disagreement with the poster of that tab. Let me know which tab for the intro sounds closer/ provide feedback to who you play it! Thanks for your time

guest
You may want to rate the tab now too:
select rating
Wanna post a correction for this tab? Suggest correction