Oops, an error
Loading. Please wait.

Norway tab

version 2
version 2

Whole song

613 views 9 this week
2 commentsread comments
1 2 3 4 5
x 4
add to favorites
×
Save as Personal and add changes to this tab that will be seen only by you. Learn more ›
×
You can save this tab as Personal to edit and correct it or add notes. All changes will be seen only by you. Learn more »
launch autoscroll
font size
0
reset
how to read this tab
guitar tuner
edit
Autoscroll
slow
fast
+/-
esc
set tempo
stop
Author
Difficulty
-------------------------------------------------------------------------------
                             Norway - Beach House
-------------------------------------------------------------------------------
Tabbed by: emily4011


Tuning: EADGBe

 part 1: 

e|-------5-----5-----5-----5-----5-----5-----5-----5-------------------------|
B|-----6-----6-----6-----6-----5-----5-----5-----5---------------------------|
G|---7-----7-----7-----7-----5-----5-----5-----5-----------------------------|
D|---------------------------------------------------------------------------|
A|---------------------------------------------------------------------------|
E|---------------------------------------------------------------------------|

e|-------3-----3-----3-----3------5-----5-----5------5-----------------------|
B|-----3-----3-----3-----3------5-----5-----5------5-------------------------|
G|---3-----3-----3-----3------5-----5-----5------5---------------------------|
D|---------------------------------------------------------------------------|
A|---------------------------------------------------------------------------|
E|---------------------------------------------------------------------------|

part 2: (sounds best with a slide; there doesnt seem to be an exact way to pick this
so its best to just mess around with this general pattern)


e|---------------------------------------------------------------------------|
B|--------10------------10---------------------------------------------------|
G|--10-10----10--10-10-----10---9/10-----------------------------------------|
D|---------------------------------------------------------------------------|
A|---------------------------------------------------------------------------|
E|---------------------------------------------------------------------------|

e|---------------------------------------------------------------------------|
B|---------------------------------------------------------------------------|
G|--9-------9----------------------------------------------------------------|
D|--10---10---10-------------------------------------------------------------|
A|--10-----------------------------------------------------------------------|
E|---------------------------------------------------------------------------|


repeat parts 1 & 2


part 3:

e|-------------------5-------------------------------------------------------|
B|------6-----8------------8------6---------5------5------8------6-------5---|
G|----7-----7-----7------7------7---------5------5------5------5-------5-----|
D|--8-----8-----8------8------8-----8---5------5------5------5------5--------|
A|---------------------------------------------------------------------------|
E|---------------------------------------------------------------------------|

e|-------------------5----------------------------------------10-----10----10|
B|-----6-----8------------8------6------------8-----10-----------------------|
G|---7-----7-----7------7------7------------9-----9-------9-------9-------9--|
D|-8-----8-----8------8------8-----8-----10-----10------10------10-----10----|
A|---------------------------------------------------------------------------|
E|---------------------------------------------------------------------------|

e|-------------------5-------------------------------------------------------|
B|------6-----8------------8------6---------5------5------8------6-------5---|
G|----7-----7-----7------7------7---------5------5------5------5-------5-----|
D|--8-----8-----8------8------8-----8---5------5------5------5------5--------|
A|---------------------------------------------------------------------------|
E|---------------------------------------------------------------------------|

e|---------------------------------------------------------------------------|
B|---------------------------------------------------------------------------|
G|-------7------7------7------7--------7------------9-------9----------------|
D|-----8------8------8------8--------8-----------10------10------------------|
A|--10-----10-----10-----10------10-------10/12-------12---------------------|
E|---------------------------------------------------------------------------|

repeat part 1 until end of song




************************************

| /   slide up
| \   slide down
| h   hammer-on
| p   pull-off
| ~   vibrato
| +   harmonic
| x   Mute note
| b   Bend
| pb  Pre-bend
| br  Bend release
| pbr Pre-bend release
| brb Bend release bend

************************************
Suggest correction
Creating personal tab
Creating personal tab
You can edit any tab online and save it as your Personal.

You can edit, replace or remove any tab part or add personal notes – all changes will be seen only by you.

Personal tabs can be accessed anytime from any device, even offline.
Learn more »
comments
print report bad tab
2 comments total.
0 reply
akirk93 40 Nov 02, 2016 08:14 PM, edited on November 6 2016, 10:13 am

The intro is wrong, if you want a way to play it come check out my tab. It also has two guitar layers in the song. ( recording version)

0 reply
akirk93 40 Nov 06, 2016 01:42 AM, edited at 10:19 am

A good tab otherwise. Although, I haven't tried this tab with the verse/other parts of the song. Only can speak for the intro. Mine is Intro Version 2.

guest
You may want to rate the tab now too:
select rating
Wanna post a correction for this tab? Suggest correction