Oops, an error
Loading. Please wait.

On The Sea Tab

version 1
version 1

Whole song

Interactive

1,513 views 12 this week
no commentswrite comment
1 2 3 4 5
worth learning
x 1
add to favorites
launch autoscroll
font size
0
reset
how to read this tab
guitar tuner
Tab Pro tools
  • play this tab
  • loop segment
  • change instrument
  • show fretboard
  • metronome
Autoscroll
slow
fast
+/-
esc
set tempo
stop
Contributor
Difficulty
novice
Beach House
On the Sea
Bloom



     E.  E  E.  E  E.  E  E.  E   
E||------------------------------|
B||------4------4------4------4--|
G||------3------3------3------3--|
D||--5------5------5------5------|
A||------------------------------|
E||------------------------------|


  E.  E  E.  E  E.  E  E.  E   
------------------------------|
------4------4------6------6--|
------3------3------5------5--|
--5------5------6------6------|
------------------------------|
------------------------------|


  E.  E  E.  E  E.  E  E.  E   
------------------------------|
------6------6------6------6--|
------5------5------5------5--|
--6------6------6------6------|
------------------------------|
------------------------------|


  E.  E  E.  E  E.  E  E.  E   
------3------3------3------3--|
------6------6------6------6--|
------5------5------5------5--|
--6------6------6------6------|
------------------------------|
------------------------------|


  E.  E  E.  E  E.  E  E.  E   
------3------3----------------|
------6------6------8------8--|
------5------5------7------7--|
--6------6------8------8------|
------------------------------|
------------------------------|


  E.  E  E.  E  E.  E  E.  E   
------------------------------|
------8------8------8------8--|
------7------7------7------7--|
--8------8------8------8------|
------------------------------|
------------------------------|


   E.  E   E.  E   E.  E   E.  E   
----------------------------------|
-------9-------9-------9-------9--|
-------8-------8-------8-------8--|
--10------10------10------10------|
----------------------------------|
----------------------------------|


   E.  E   E.  E   E.   E   E.   E   
------------------------------------|
-------9-------9--------9--------9--|
-------8-------8-------10-------10--|
--10------10------10-------10-------|
------------------------------------|
------------------------------------|


   E.   E   E.   E   E.   E   E.   E   
--------------------------------------|
--------9--------9--------9--------9--|
-------10-------10-------10-------10--|
--10-------10-------10-------10-------|
--------------------------------------|
--------------------------------------|


   E.   E   E.   E   E.   E   E.   E   
--------------------------------------|
-------11-------11-------11-------11--|
-------10-------10-------10-------10--|
--12-------12-------12-------12-------|
--------------------------------------|
--------------------------------------|


   E.   E   E.   E   E.   E   E.   E   
--------------------------------------|
-------11-------11-------11-------11--|
-------10-------10-------10-------10--|
--12-------12-------12-------12-------|
--------------------------------------|
--------------------------------------|


   E.   E   E.   E   E.   E   E.   E    
--------------------------------------||
-------11-------11-------11-------11--||
-------10-------10-------10-------10--||
--12-------12-------12-------12-------||
--------------------------------------||
--------------------------------------||




Duration Legend
---------------
W - whole
H - half
Q - quarter
E - 8th
S - 16th
T - 32nd
X - 64th
. - note dotted
|-n-|  - n-tuplets


Tablature Legend
----------------
L - tied note
x - dead note
g - grace note
(n) - ghost note
> - accentuded note
NH - natural harmonic
AH - artificial harmonic
TH - tapped harmonic
SH - semi harmonic
PH - pitch harmonic
h - hammer on
p - pull off
b - bend
br - bendRelease
pb - preBend
pbr - preBendRelease
brb - bendReleaseBend
\n/ - tremolo bar dip
\n - tremolo bar dive
-/n - tremolo bar Release up
/n\ - tremolo bar inverted dip
/n - tremolo bar return
-\n - tremolo bar Release down
S - shift slide
s - legato slide
/ -  slide into from below or out of upwards
\ -  slide into from above or out of downwards
~ - vibrato
W - wide vibrato
tr - trill
TP - tremolo picking
T - tapping
S - slap
P - pop
< - fade in
^ - brush up
v - brush down
comments
We did not receive enough feedback on this tab! Please rate:
print report bad tab
1 2 3 4 5
I want to post or [tab]
guest
You may want to rate the tab now too:
select rating
Please do not post tabs as comments. Select "correction" instead!