Oops, an error
Loading. Please wait.

Other People tab

1,270 views 18 this week
no commentswrite comment
1 2 3 4 5
1 last vote to show rating
add to favorites
×
Save as Personal and add changes to this tab that will be seen only by you. Learn more ›
×
You can save this tab as Personal to edit and correct it or add notes. All changes will be seen only by you. Learn more »
launch autoscroll
font size
0
reset
how to read this tab
guitar tuner
edit
Autoscroll
slow
fast
+/-
esc
set tempo
stop
Author
-------------------------------------------------------------------------------
                             Other People - Beach House
-------------------------------------------------------------------------------
Tabbed by: afriedman174
E-mail: afriedman174@gmail.com

Tuning: standard (Alex might be playing this tuned 1/2 step down, in which case raise everything by 1 fret)

e|----------------------------------------------------------------------------------|
B|------8b9r8----8b9r8--6--8--(x2)----11pb13r11--(x2)--------8---8---8---8---8~-----|
G|-------------------------------------------------------------8---8---8---8--------|
D|----------------------------------------------------------------------------------|
A|----------------------------------------------------------------------------------|
E|----------------------------------------------------------------------------------|
    "So you thought it would happen..."


e|-----------------------------------------------------------------------------------------------------|
B|-----15----16----16----16----16----16----15----15----16----16----16----16----16----16----15----15----|
G|--15----15----15----15----17----15----15----15----17----17----15----15----17----17----15----15-------| (x2)
D|-----------------------------------------------------------------------------------------------------|
A|-----------------------------------------------------------------------------------------------------|
E|-----------------------------------------------------------------------------------------------------|
   "Other people want to keep in touch..."


e|---4---------6-------------------------------|
B|-----4-----6---6-6----------8----------------|
G|-------5/7---------7------8---8--------------|
D|---------------------8/10--------10----------|  (x2)
A|---------------------------------------------|
E|---------------------------------------------|

e|---4---------6-------------------------------|
B|-----4-----6---6-6----------8----------------|
G|-------5/7---------7------8---8--------------|
D|---------------------8/10--------10----------|  (x4)
A|---------------------------------------------|
E|---------------------------------------------|
   "Heaven won't keep us together..."


e|-------------------10------6---------6-------------|        |-----------------------------------|
B|----13---11-----11----11-----8-----6---6-----------|        |-----8---8---8---8---8~------------|
G|-------------10----------------8\7-------7---------|        |-------8---8---8---8---------------|
D|---------------------------------------------------| (x2)   |-----------------------------------|
A|---------------------------------------------------|        |-----------------------------------|
E|---------------------------------------------------|        |-----------------------------------|
    "Somewhere no one can reach us..."

e|-----------------------------------------------------------------------------------------------------|
B|-----15----16----16----16----16----16----15----15----16----16----16----16----16----16----15----15----|
G|--15----15----15----15----17----15----15----15----17----17----15----15----17----17----15----15-------| (x2)
D|-----------------------------------------------------------------------------------------------------|
A|-----------------------------------------------------------------------------------------------------|
E|-----------------------------------------------------------------------------------------------------|
   "Other people want to keep in touch..."


e|---------------------------------------------------------------------------|
B|----8----13--13---6--6---11---8----6---4--4----13--13----8---6-------------|
G|----7----12--12---5--5---8----7----5---3--3----12--12----5---7-------------|    (x6)
D|----8----13--13---6--6---10---8----6---5--5----13--13----6---8-------------|
A|-------------------------8-------------------------------------------------|
E|---------------------------------------------------------------------------|
    "Was it ever quite enough?"

************************************

| /   slide up
| \   slide down
| h   hammer-on
| p   pull-off
| ~   vibrato
| b   Bend
| pb  Pre-bend
| br  Bend release
| pbr Pre-bend release
| brb Bend release bend

************************************

            
            
Suggest correction
Creating personal tab
Creating personal tab
You can edit any tab online and save it as your Personal.

You can edit, replace or remove any tab part or add personal notes – all changes will be seen only by you.

Personal tabs can be accessed anytime from any device, even offline.
Learn more »
Give kudos to tab author, rate the tab!
1 2 3 4 5
comments
print report bad tab
guest
You may want to rate the tab now too:
select rating
Wanna post a correction for this tab? Suggest correction