Oops, an error
Loading. Please wait.

Walk In The Park Tab

version 1
version 1

Whole song

12,131 views 15 this week
no commentswrite comment
1 2 3 4 5
please rate
add to favorites
launch autoscroll
font size
0
reset
how to read this tab
guitar tuner
Autoscroll
slow
fast
+/-
esc
set tempo
stop
Help us to improve Ultimate-Guitar.com Take our survey!
×
Difficulty
Tuning
novice
D# G# C# F# A# D#
-------------------------------------------------------------------------------
                             Walk In The Park - Beach House
-------------------------------------------------------------------------------
Tabbed by: Elliot
Email: midiman0@gmail.com

Tuning: D# Tuning (Half-Step Down)
Pickup: Bridge
Effects: A little chorus and some reverb

Intro
eb|-------------------------------------------------------------------------|
Bb|-------------------------------------------------------------------------|
Gb|-------------------------------------------------------------------------|
Db|---6-8-6-8s3--6-8-6-8s11-----------------6-8-6-4s8---6-8-6-8s3--6-8-6-8--|
Ab|--------------------------9-11-13-11-9-6-----------6-------------------6-|
Eb|-------------------------------------------------------------------------|


Verse (You go for a walk in the park...)
eb|---6---6---6-----6---6---6-----6---6---6-----6---6---6-------------------|
Bb|----7----7--------7----7--------6----6--------7----7------x3-------------|
Gb|-----6-------------8-------------6-------------6-------------------------|
Db|-------------------------------------------------------------------------|
Ab|-------------------------------------------------------------------------|
Eb|-------------------------------------------------------------------------|

Chorus 1 (In a matter of time...)
eb|-------------------------------------------------------------------------|
Bb|---~19~18~19~16~18~14~16~11--x5----~7~6-4--------------------------------|
Gb|-------------------------------------------------------------------------|
Db|-------------------------------------------------------------------------|
Ab|-------------------------------------------------------------------------|
Eb|-------------------------------------------------------------------------|

Bridge
eb|-------------------------------------------------------------------------|
Bb|-------------------------------------------------------------------------|
Gb|-------------------------------------------------------------------------|
Db|---6-8-6-8s3--6-8-6-8s11-----------------6-8-6-4s8---6-8-6-8s3--6-8-6-8--|
Ab|--------------------------9-11-13-11-9-6-----------6-------------------6-|
Eb|-------------------------------------------------------------------------|

Verse 2 (The face that you saw in the door...)
eb|---6---6---6-----6---6---6-----6---6---6-----6---6---6-------------------|
Bb|----7----7--------7----7--------6----6--------7----7------x3-------------|
Gb|-----6-------------8-------------6-------------6-------------------------|
Db|-------------------------------------------------------------------------|
Ab|-------------------------------------------------------------------------|
Eb|-------------------------------------------------------------------------|

Chorus 2 (In a matter of time...)
eb|-------------------------------------------------------------------------|
Bb|---~19~18~19~16~18~14~16~11--x5------------------------------------------|
Gb|-------------------------------------------------------------------------|
Db|-------------------------------------------------------------------------|
Ab|-------------------------------------------------------------------------|
Eb|-------------------------------------------------------------------------|

Outro (More, you want more...)
eb|---x---------------------------------------------------------------------|
Bb|---x---------------------------------------------------------------------|
Gb|---x---**scratch softly while slowly moving higher**---------------------|
Db|---x---------------------------------------------------------------------|
Ab|---x---------------------------------------------------------------------|
Eb|---x---------------------------------------------------------------------|

       (After the second time Victoria sings 'More, only time can know me')
     eb|--------------------------------------------------------------------|
     Bb|--------14----14-----------14----14---------------------------------|
     Gb|-----------13-----x4----------13-----x4-----**repeat till end**-----|
     Db|-----15-----------------13------------------------------------------|
     Ab|--------------------------------------------------------------------|
     Eb|--------------------------------------------------------------------|


************************************

| /   slide up
| \   slide down
| h   hammer-on
| p   pull-off
| ~   vibrato
| +   harmonic
| x   Mute note
| b   Bend
| pb  Pre-bend
| br  Bend release
| pbr Pre-bend release
| brb Bend release bend

************************************
Suggest correction
Give kudos to tab author, rate the tab!
1 2 3 4 5
comments
print report bad tab
guest
You may want to rate the tab now too:
select rating
Please do not post tabs as comments. Select "correction" instead!