Oops, an error
Loading. Please wait.

Zebra Ukulele Chords

version 2
version 2

Whole song

  • Ukulele lead guitar tab in low-G tuning.
73 views 6 this week
no commentswrite comment
1 2 3 4 5
3 more votes to show rating
add to favorites
launch autoscroll
font size
0
reset
transpose
0
reset
display chords
guitar tuner
Autoscroll
slow
fast
+/-
esc
set tempo
stop
Help us to improve Ultimate-Guitar.com Take our survey!
×
Author
Difficulty
Capo
intermediate
1st fret
About this tab version
Ukulele lead guitar tab in low-G tuning. Was this info helpful? Yes No
You know you're gold, you don't got to worry none
Oasis child, born and so wild
Don't I know you better than the rest
All deception, all deception from you

Your love is stag in the white sand
Wilderness for miles, eyes so mild and wise
Don't I know you better than the rest
All deception, all deception from you

Any way you run, you run before us
Black and white horse arching among us

Your love is stag in the white sand
Oasis child born into a man
Don't I know you better than the rest
All deception, all deception from you

Wilderness for miles, eyes so mild and wise
Oasis child, born and so wild
Don't I know you better than the rest
All deception, all deception from you

Any way you run, you run before us
Black and white horse arching among us

Song: Zebra
Artist: Beach House
Album: "Teen Dream" [2010]

Guitar Tab by Young Pacific's Devin Miller (www.youngpacificmusic.com)

Tuning: Low G, Capo on 1

***********************************************************************


[Intro/Verses]

Play the following 18 bars:

A|-2---2---2---|-3---3---3---|-7---5---3---|-2---2---2---|
E|-------------|-------------|-------------|-------------|
C|---2---2---2-|---4---4---4-|---7---6---4-|---2---2---2-|
G|-------------|-------------|-------------|-------------|
       You know you're gold,  you don't got to worry none

A|-2---2---2---|-3---3---3---|-7---5---3---|-2---2---5---|
E|-------------|-------------|-------------|-------------|
C|---2---2---2-|---4---4---4-|---7---6---4-|---2---2---6-|
G|-------------|-------------|-------------|-------------|
       Oasis     child,         born  and  so   wild

A|-7---7---7---|-5---5---5---|-9---9---9---|-2---2---2---|
E|-------------|-------------|-------------|-------------|
C|---7---7---7-|---6---6---6-|---9---9---9-|---2---2---2-|
G|-------------|-------------|-------------|-------------|

A|-------------|-------------|-------------|-------------|
E|-8---8---8---|-8---8---7---|-5---3---3---|-3---2-------|
C|-------------|-------------|-------------|---------4---|
G|---9---9---9-|---9---9---7-|---5---4---2-|---2---2---0-|

A|-------------|-------------|
E|-------------|-------------|
C|-2---2---4---|-7---7---9---|
G|---0---0---0-|---0---0---0-|

**Repeat 4 times

On the 4th time, replace the last 2 bars with these 4 bars:

A|-------------|-------------|-------------|--------------|
E|-------------|-------------|-------------|--------------|
C|-2---2---4---|-7---7---4---|-2---2---2---|-2---2---2----|
G|---0---0---0-|---0---0---0-|---0---0---0-|---0---0---4/-|


[Chorus]

A|-2---2---6---|-7---7---7---|-------------|-5---5---5---|
E|-------------|-------------|-3---3---2---|-------------|
C|---2---2---6-|---7---7---7-|-------------|---6---6---6-|
G|-------------|-------------|---4---4---2-|-------------|

A|-------------|-------------|-------------|-------------|
E|-8---8---8---|-2---2---2---|-5---5---3---|-2---2---2---|
C|-------------|-------------|-------------|-------------|
G|---9---9---9-|---2---2---2-|---5---5---4-|---2---2---2-|

**Repeat 2 times

On the 2nd time, place the last bar once more.


[Bridge]

Just play this 4 times:

B|-------------|
G|-6---6---6---|
D|-------------|
A|---7---7---7-|


[Verse+Chorus]

End the song with the chorus, and on the very last one, play the last
bar of the chorus 4 times, then end on:

B|-------------------------------------|
G|-6-----------------------------------|
D|-------------------------------------|
A|-7-----------------------------------|

The end!


***********************************************************************

| /  slide up
| \  slide down
| h  hammer-on
| p  pull-off
| ~  vibrato
| +  harmonic
| x  Mute note

***********************************************************************
 Suggest correction
Suggest correction
Give kudos to tab author, rate the tab!
1 2 3 4 5
comments
print report bad tab
guest
You may want to rate the tab now too:
select rating
Wanna post a correction for this tab? Suggest correction