Oops, an error
Loading. Please wait.

Bad Seed Bass Tab

28 views 1 this week
no commentswrite comment
1 2 3 4 5
3 more votes to show rating
add to favorites
launch autoscroll
font size
0
reset
guitar tuner
Autoscroll
slow
fast
+/-
esc
set tempo
stop
Help us to improve Ultimate-Guitar.com Take our survey!
×
Author
Difficulty
intermediate
About this tab version
Bass version of the Beach Weather's music "Bad Seed". Twitter: www.twitter.com/ClementBougneux. Was this info helpful? Yes No
[Verse 1]

1st time:

G|-----------------------------------------|
D|-----------------------------------------|
A|---7-7-5-7-------------------------------|
E|------------7-7-5-7---5-5-3-5------5-5-7-| x2

2nd time:

G|----------------------------------------------------|
D|----------------------------------------------------|
A|-7-7-5-7-5-7----------------------------------------|
E|--------------7-7-5-7-5-7--5-5-3-5-3-5--5-5-3-5-3-5-| x1

[Pre-chorus]

G|--------------------------|
D|--------------------------|
A|--------------------------|
E|-7--5--3--0----7--5--3--0-| x1

[Chorus]

G|-----------------------------------------------------|
D|---------5-------------------------------------------|
A|-7-7-5-7---7----------5------------------------------|
E|--------------7-7-5-7---7--5-5-3-5-3-5--5-5-3-5----7-| x4

[Verse 2]

G|----------------------------------------------------|
D|----------------------------------------------------|
A|-7-7-5-7-5-7----------------------------------------|
E|--------------7-7-5-7-5-7--5-5-3-5-3-5--5-5-3-5-3-5-| x3

[Pre-chorus]

G|--------------------------|
D|--------------------------|
A|--------------------------|
E|-7--5--3--0----7--5--3--0-| x1

[Chorus]

G|-----------------------------------------------------|
D|---------5-------------------------------------------|
A|-7-7-5-7---7----------5------------------------------|
E|--------------7-7-5-7---7--5-5-3-5-3-5--5-5-3-5----7-| x4

[Verse 3]

G|-----------------------------------------|
D|-----------------------------------------|
A|---7-7-5-7-------------------------------|
E|------------7-7-5-7---5-5-3-5------5-5-7-| x3

[Pre-chorus]

G|--------------------------|
D|--------------------------|
A|--------------------------|
E|-7--5--3--0----7--5--3--0-| x1

[Chorus]

G|-----------------------------------------------------|
D|---------5-------------------------------------------|
A|-7-7-5-7---7----------5------------------------------|
E|--------------7-7-5-7---7--5-5-3-5-3-5--5-5-3-5----7-| x4
Suggest correction
Give kudos to tab author, rate the tab!
1 2 3 4 5
comments
print report bad tab
guest
You may want to rate the tab now too:
select rating
Wanna post a correction for this tab? Suggest correction