Oops, an error
Loading. Please wait.

Circular Reasoning Tab

80 views 3 this week
no commentswrite comment
1 2 3 4 5
3 more votes to show rating
add to favorites
launch autoscroll
font size
0
reset
how to read this tab
guitar tuner
Autoscroll
slow
fast
+/-
esc
set tempo
stop
Help us to improve Ultimate-Guitar.com Take our survey!
×
Author
Difficulty
Song: Circular Reasoning
Band: Beans
Albm: Sundown

Intro:
|              D                     F
|------------------------------------------------------|
|--10--------------------10----------------------------|
|--12b14r12-10-----------12b14r12-10-12-10-------------|
|--------------12--------------------------12----------|
|------------------------------------------------------|
|------------------------------------------------------|
|              C           A           D
|------------------------------------------------------|
|--10----------------------10--------------------------|
|--12b14r12-10-12-10-12-10-12b14r12-10-----------------|
|--------------------------------------12--------------|
|------------------------------------------------------|
|------------------------------------------------------|

Intro/Verse
| D        F        C    A    D
|--------------------------------------|
|--------------------------------------|
|-77777777----------5555------77777777-|
|-77777777-33333333-5555-7777-77777777-|   X2
|-55555555-33333333-3333-7777-55555555-|
|----------11111111------5555----------|

Pre-Chorus
| A#       C        D
|-------------------------------------|
|--------------------***-***-***-***--|
|-33333333-55555555-7777777777777777--|
|-33333333-55555555-7777777777777777--|
|-11111111-33333333-5555555555555555--|
|-------------------------------------|
| A#       C        A
|-------------------------------------|
|-------------------------------------|
|-33333333-55555555--***-***-***-***--|
|-33333333-55555555-7777777777777777--|
|-11111111-33333333-7777777777777777--|
|-------------------5555555555555555--|

Chorus
| F    C    D    A#          F    C    A
|---------------------|----|----------------------------|
|---------------------|----|----------------------------|
|------5555-7777-3333-|----|------5555------------------|
|-3333-5555-7777-3333-|-X3-|-3333-5555-7777777777777777-|
|-3333-3333-5555-1111-|----|-3333-3333-7777777777777777-|
|-1111----------------|----|-1111------5555555555555555-|

Solo
| D                 F               C        A         D
|-10---10-10---10-10---10-10---10-10------------------------|
|-10---10-10---10-10---10-10---10-10------------------------|
|---12b-----12b-----12b-----12b----------10h12b14r12-10-----|
|-----------------------------------10h12--------------12---|
|-----------------------------------------------------------|
|-----------------------------------------------------------|
| D                 F               C        A         D
|-10---10-10---10-10---10-10---10-10----13-13---13-13-------|
|-10---10-10---10-10---10-10---10-10----13-13---13-13-15~~~-|
|---12b-----12b-----12b-----12b------15b-----15b------------|
|-----------------------------------------------------------|
|-----------------------------------------------------------|
|-----------------------------------------------------------|

Order:
Intro       x2
Verse       x2
Pre-Chorus  x1
Chorus      x1
Intro       x2
Verse       x2
Pre-Chorus  x1
Chorus      x1
Intro       x1
Solo        x1
Verse       x2
Pre-Chorus  x1
Chorus      x1

Verse 1
There's virtue in its absence
And there's vice and deception in its wake
While unseen lines and undetected lies
May well have contributed to its fate

Pre-chorus
We've heard the clarion call
Seen pictures on the wall
There for all to see but too high to reach at all
Nothing left for us to do but stall

Chorus
Are you a believer in circular reasoning
The only way so join the ranks of the inane
Are you a believer in lies and deceiving
Then you're only human
So join the ranks of the insane

Verse 2
Emotions overwhelming
And the price we pay for listening isn't cheap
The cross we bear is our humanity
Originating from somewhere down deep

Pre-chorus
Our values stand as tall
As a sandcastle wall
Nothing to hold on to but misguidance for us all
Nothing left to believe in at all

Chorus
Are you a believer in circular reasoning
The only way so join the ranks of the inane
Are you a believer in lies and deceiving
Then you're only human
So join the ranks of the insane

Verse 3
Endless ruminations
Still we may never see the day we reconcile
Boundaries set mean we may never see
Group mentality go out of style

Pre-chorus
There are signs of our fall
Like pictures on a wall
There for all to see but too high to reach at all
Black and white's the blueprint of our fall

Chorus
Are you a believer in circular reasoning
The only way so join the ranks of the inane
Are you a believer in lies and deceiving
Then you're only human
So join the ranks of the insane

email me on owen_b123@hotmail.com

http://www.beanspunk.nl/
Suggest correction
Give kudos to tab author, rate the tab!
1 2 3 4 5
comments
print report bad tab
guest
You may want to rate the tab now too:
select rating
Wanna post a correction for this tab? Suggest correction