Oops, an error
Loading. Please wait.

Halos Tab

80 views 1 this week
no commentswrite comment
1 2 3 4 5
please rate
add to favorites
launch autoscroll
font size
0
reset
how to read this tab
guitar tuner
Autoscroll
slow
fast
+/-
esc
set tempo
stop
Help us to improve Ultimate-Guitar.com Take our survey!
×
Author
Difficulty
Song: Halos
Band: Beans
Albm: Sundown

Intro:
|  D     B                         D     B
|-------------------------------------------|
|-------------------------------------------|
|--7-7-7-4-------------------------7-7-7-4--|
|--7-7-7-4-------------------------7-7-7-4--|
|--5-5-5-2-(let ring)--------------5-5-5-2--|
|-------------------------------------------|

|-----------------------------------------------------------|
|-----------------------------------------------------------|
|-----------------------------------------------------------|
|--4-2-4-0-------0-2-0---------4-2-4-0-------0-2-0---33333--|
|----------2---2-------2-0-2-----------2---2-------2--------|
|-----------------------------------------------------------|
|
|--------------------------------------------------------------|
|--------------------------------------------------------------|
|--------------------------------------------------------------|
|--4-2-4-0-------0-2-0---------------0-2-0---4---4---7--9--9---|
|----------2---2-------2-0-2---2-0-2-------2-------------------|
|--------------------------------------------------------------|

Verse:
|  Bm              G        D
|--x-2-x-2-x-2-x-2-x-3-x-3--5-5-5--|
|--x-3-x-3-x-3-x-3-x-3-x-3--7-7-7--|
|--x-4-x-4-x-4-x-4-x-4-x-4--7-7-7--|
|--x-4-x-4-x-4-x-4-x-5-x-5--7-7-7--| x3
|--x-2-x-2-x-2-x-2-x-5-x-5--5-5-5--|
|------------------x-3-x-3---------|
|  F#              G        A
|--x-2-x-2-x-2-x-2-x-3-x-3---------|
|--x-2-x-2-x-2-x-2-x-3-x-3---------|
|--x-3-x-3-x-3-x-3-x-4-x-4--2-2-2--|
|--x-4-x-4-x-4-x-4-x-5-x-5--2-2-2--|
|--x-4-x-4-x-4-x-4-x-5-x-5--0-0-0--|
|--x-2-x-2-x-2-x-2-x-3-x-3---------|

Chorus:
|  Bm      A       D
|--x-2-x-2---------x-5-x-5-x-5-x-5--|
|--x-3-x-3-x-2-x-2-x-7-x-7-x-7-x-7--|
|--x-4-x-4-x-2-x-2-x-7-x-7-x-7-x-7--|
|--x-4-x-4-x-2-x-2-x-7-x-7-x-7-x-7--| x3
|--x-2-x-2-x-0-x-0-x-5-x-5-x-5-x-5--|
|-----------------------------------|
|  Bm      A       F#       A
|--x-2-x-2---------x-2-x-2---------|
|--x-3-x-3-x-2-x-2-x-2-x-2---------|
|--x-4-x-4-x-2-x-2-x-3-x-3--2-2-2--|
|--x-4-x-4-x-2-x-2-x-4-x-4--2-2-2--|
|--x-2-x-2-x-0-x-0-x-4-x-4--0-0-0--|
|------------------x-2-x-2---------|

Solo:
The chords for the solo parts are the verse for the 1st part
and the chorus for the actual solo.

|--------------------------|    |-------------------|
|-----10-12----------------|    |-------------------|
|--11-------9--9-----------|    |-------------------|
|----------------12-11--9--| x3 |--9-7---11---11-9--|
|--------------------------|    |-------------------|
|--------------------------|    |-------------------|
|
|--77----77----77---------------------------------------|
|--77----77----77---------------------------9--9--9--9--|
|-----9b----9b----9br9-9-7----------7-9-7-9b-9b-9b-9b---|
|--------------------------9--9-7-9---------------------|
|-------------------------------------------------------|
|-------------------------------------------------------|
|
|-------------------------------------------|
|-------------------------------------------|
|--9b-9b-7----------------------------------|
|----------9--9-7-9---9-7-------------------|
|-------------------------9-7-5-------------|
|-------------------------------7--5-5-5-7--|
|
|------------------------------------------|
|------------------------------------------|
|--------------7---7-9b-9b-9b-7------------|
|----------7-9---9--------------9---9-7-9--|
|----5-7-9---------------------------------|
|--7---------------------------------------|
|
|--------------------------------|
|--------------------------------|
|--------------------------------|
|--9--7--------------------------|
|-------9--7--5--7--5--4---------|
|-------------------------7------|

Breakdown:
|  B     D       C# F#   G     A  
|---------------------------------|
|--*--****--****-*-------------*--|
|--4--4447--7777-6--*-****--***2--|
|--4--4447--7777-6--4-4445--5552--| x4
|--2--2225--5555-4--4-4445--5550--|
|-------------------2-2223--333---|
|  B     D       C# F#    E      D C#
|-------------------------------------|
|--*--****--****-*--------*--*****-*--|
|--4--4447--7777-6--------9--99997-6--|
|--4--4447--7777-6--*--***9--99997-6--|
|--2--2225--5555-4--9--9997--77775-4--| x4
|-------------------------------------|

Order:
Intro
Intro riff w/ verse  x1
Verse                x2
Chorus               x1
Verse                x2
Chorus               x1
Verse w/ solo riff   x1
Chorus w/ solo       x1
Breakdown
Verse                x2
Chorus               x1
Intro riff w/ verse  x1

email me on owen_b123@hotmail.com

http://www.beanspunk.nl/
Suggest correction
Give kudos to tab author, rate the tab!
1 2 3 4 5
comments
print report bad tab
guest
You may want to rate the tab now too:
select rating
Wanna post a correction for this tab? Suggest correction