Oops, an error
Loading. Please wait.

Giants bass

version 1
version 1

Whole song

326 views 1 this week
no commentswrite comment
1 2 3 4 5
1 last vote to show rating
add to favorites
×
Save as Personal and add changes to this tab that will be seen only by you. Learn more ›
×
You can save this tab as Personal to edit and correct it or add notes. All changes will be seen only by you. Learn more »
launch autoscroll
font size
0
reset
guitar tuner
edit
Autoscroll
slow
fast
+/-
esc
set tempo
stop
-------------------------------------------------------------------------------
                             Giants - Bear Hands
-------------------------------------------------------------------------------
Tabbed by: Zach St. Pierre
E-mail: 

Tuning: Standard (E,A,D,G)

Note; This is my very first tab and is all done by ear. Let me know of any mistakes.
To my knowledge this tab dose not exist for bass anywhere online.


Intro

G|---------------------------------------------------------------------------|
D|---------------------------------------------------------------------------|
A|--------------1/3----------------1/3----------------1/3--------------------|
E|-1-1/3----1h2-------2~~3---1-1h2--------1-1/3----1h2------2~~3-------------|

(slow slide, listen to understand)

Course "I am loving you more!" 

G|---------------------------------------------------------------------------|
D|---------------------------------------------------------------------------|
A|---------------------------------------------------------------------------|
E|-1--33-3-(x7)--1-2-1---11111-----------------------------------------------|
                 (^ with the drums^) 1's not 11's

(Verse)

G|---------------------------------------------------------------------------|
D|---------------------------------------------------------------------------|
A|--------------1/3----------------1/3----------------1/3--------------------|
E|-1-1/3----1h2-------2~~3---1-1h2--------1-1/3----1h2------2~~3-------------|

Bridge (Instrumental part)
G|---------------------------------------------------------------------------|
D|---------------------------------------------------------------------------|
A|---------------------------------------------------------------------------|
E|-1--33-3-(x7)--1--33-3--3~~~~~-3(x6)---2(x6)---2(x6)---2(x6)---234-2~~~~~~~|
  
                              (^Sounds like just a rumble in the song^) 
G|---------------------------------------------------------------------------|
D|---------------------------------------------------------------------------|
A|---------------------------------------------------------------------------|
E|2h3---3(x6)---3(x6)---3(x6)---234-2~~~--3(x7)-3(x7)-234-2~-2h3---3(x7)-----|
                                          (^--------with Drums------- ^)

Outro is the same as the intro.

| /  slide up
| \  slide down
| h  hammer-on
| p  pull-off
| ~  vibrato
| +  harmonic
| x  Mute note
===============================================================================

Please correct me, as I am probably very wrong! 

            
            
Suggest correction
Creating personal tab
Creating personal tab
You can edit any tab online and save it as your Personal.

You can edit, replace or remove any tab part or add personal notes – all changes will be seen only by you.

Personal tabs can be accessed anytime from any device, even offline.
Learn more »
Give kudos to tab author, rate the tab!
1 2 3 4 5
comments
print report bad tab
guest
You may want to rate the tab now too:
select rating
Wanna post a correction for this tab? Suggest correction