Oops, an error
Loading. Please wait.

Giants chords

version 2
version 2

Whole song

382 views 1 this week
2 commentsread comments
1 2 3 4 5
1 last vote to show rating
add to favorites
×
Save as Personal and add changes to this tab that will be seen only by you. Learn more ›
×
You can save this tab as Personal to edit and correct it or add notes. All changes will be seen only by you. Learn more »
launch autoscroll
font size
0
reset
transpose
0
reset
simplify chords
display chords
guitar tuner
edit
Autoscroll
slow
fast
+/-
esc
set tempo
stop
Author
Difficulty
Strumming
There is no strumming pattern for this song yet. and get +5 IQ
This is my first tab-- it's not 100% correct but I did my best. 
Please let me know in the comments what isn't correct :)
(created with the help of musicmemo app)

-- I do not claim rights to this song -- 

[Intro]

F# C D D C 
Am C G G G F F Em G
G G F F Am Am G G C# 


[Verse 1]

E
Two words
G     C       CM7    G7
Rock, chalk, shot a jayhawk
G7
Never been to jail 'cause I never get caught
F     E             Em   G    Em 
I got smarts, dark, dangerous dog
Em        G
ODB got it right from the start
Bm    C                                   Dm
You got one and you changed from crazy to calm
           C#                   G7            D
I've been awake for days in the dusk and the dawn
Em                           C
And you're loving me whether you want to or not
Bm         Em                        Bm 
I want you for sure, I am loving you more


[Riff]
(if playing with another person soloist plays riff other person plays chords)

e|----5-5-5--3-3-3-----------------------------|
B|-----------------5-5-5--3-3-3--3-3/5---------|
G|------------------------------5-5------------|
D|---------------------------------------------|
A|---------------------------------------------|
E|---------------------------------------------|

e|----5-5-5--3-3-3-----------------------------|
B|-----------------5-5-5--3-3-3--3-3/5-3-------|
G|------------------------------5-5------------|
D|---------------------------------------------|
A|---------------------------------------------|
E|---------------------------------------------|

[Chorus]

Bm               C     G Em 
I am loving you, more
Bm              Em        G
I am loving you more
Bm               C
I am loving you, more


[Verse 2]

G
Who heard?
G            C
What, no, no right from the start
F                         G                  B
Go sell that shit somewhere farther from the heart
E
Running, and running, and running, and stop
E
Come on, we both knew this thing would be hard
D
I see art
C
You see class
Em
You think
Em 
You ask
B       Dm      E
You say darling am I a chore?
Em                         Bm              Em 
I said I know you love me, I am loving you more


[Riff]

e|----5-5-5--3-3-3-----------------------------|
B|-----------------5-5-5--3-3-3--3-3/5---------|
G|------------------------------5-5------------|
D|---------------------------------------------|
A|---------------------------------------------|
E|---------------------------------------------|

e|----5-5-5--3-3-3-----------------------------|
B|-----------------5-5-5--3-3-3--3-3/5-3-------|
G|------------------------------5-5------------|
D|---------------------------------------------|
A|---------------------------------------------|
E|---------------------------------------------|


[Chorus]

Bm               C     G Em 
I am loving you, more
Bm              Em        G
I am loving you more
Bm               C
I am loving you, more


[Instrumental]

E Am 
Am Em 
C C C
Em A Em 
C C C 
C Am

C           Am 
Pick up the perfect card
D         Am      Bm
Slip into smiling wildly
C
After the rest have gone
C
We become beyond timeless
C         B         D       A
Give you everything that I have ever owned
Bm          C                   C#        C
Soon I will have bought us up a house and home
C
Up on the seventh floor
D                        Am
I know you love me, I am loving you more


[Interlude]

E C Bm 


Bm               C     G Em 
I am loving you, more
Bm              Em        G
I am loving you more
Bm               C
I am loving you, more


Bm               C     G Em 
I am loving you, more
Bm              Em        G
I am loving you more
Bm               C      
I am loving you, more



Intro, Chorus and Interlude Guitar Riff: 
(not sure if there was a base line, please comment if there was or if you figured it out)

e|----5-5-5--3-3-3-----------------------------|
B|-----------------5-5-5--3-3-3--3-3/5---------|
G|------------------------------5-5------------|
D|---------------------------------------------|
A|---------------------------------------------|
E|---------------------------------------------|

e|----5-5-5--3-3-3-----------------------------|
B|-----------------5-5-5--3-3-3--3-3/5-3-------|
G|------------------------------5-5------------|
D|---------------------------------------------|
A|---------------------------------------------|
E|---------------------------------------------| 

            
            
Suggest correction
Creating personal tab
Creating personal tab
You can edit any tab online and save it as your Personal.

You can edit, replace or remove any tab part or add personal notes – all changes will be seen only by you.

Personal tabs can be accessed anytime from any device, even offline.
Learn more »
Give kudos to tab author, rate the tab!
1 2 3 4 5
comments
print report bad tab
2 comments total.
0 reply
tanner.11 42 Apr 30, 2016 05:03 AM

The correct riff

E--5-5-5--------------------------------------|
B---------8-8-8--5-5-5--3-3-3--1-1--3---------|
G-------------------------------------------4-|
D--------------------------------------3/5----|
A---------------------------------------------|
E---------------------------------------------|

E--5-5-5--------------------------------------|
B--------8-8-8--5-5-5--3-3-3--1-1--3--1--5----|
G---------------------------------------------|
D---------------------------------------------|
A---------------------------------------------|
E---------------------------------------------|

guest
You may want to rate the tab now too:
select rating
Wanna post a correction for this tab? Suggest correction