Oops, an error
Loading. Please wait.

Giants chords

version 3
version 3

Whole song

184 views 3 this week
no commentswrite comment
1 2 3 4 5
2 more votes to show rating
add to favorites
×
Save as Personal and add changes to this tab that will be seen only by you. Learn more ›
×
You can save this tab as Personal to edit and correct it or add notes. All changes will be seen only by you. Learn more »
launch autoscroll
font size
0
reset
transpose
0
reset
display chords
guitar tuner
edit
Autoscroll
slow
fast
+/-
esc
set tempo
stop
Author
Difficulty
Strumming
There is no strumming pattern for this song yet. and get +5 IQ
[Intro]

F / C / G / G 


[Verse 1]

           F            C
Two words: Rock, chalk, shot a jayhawk
G
Never been to jail 'cause I never get caught
      F             C
I got smarts, dark, dangerous dog
G
ODB got it right from the start
        F                        C
You got one and you changed from crazy to calm
          G
I've been awake for days in the dusk and the dawn
           F                     C
And you're loving me whether you want to or not
      G
But I want you for sure...


[Chorus 1]

                       F       Am   G
I am loving you mooooore
                     F       Am   G
I am loving you, more
                      F       Am   G
I am loving you mooooore
                      F       Am   G
I am loving you, more


[Verse 2]

           F            C
Who heard? What, no, no right from the start
   G
Go sell that shit somewhere further from the heart
F                         C
Running, and running, and running, and stop
G
Come on, we both knew this thing would be hard
      F            C
I see art, you see class
    G
You think, you ask
        F              C
You say darling am I a chore?
         G
I said I know you love me...


[Chorus 2]

                       F       Am   G
I am loving you mooooore
                     F       Am   G
I am loving you, more
                      F       Am   G
I am loving you mooooore
                      F       Am   G
I am loving you, more


[ G / Dm / Dm / Dm ] X2


[Bridge]

G
   Pick up the perfect card
Dm
   Slip into smiling wildly
Dm
   After the rest have gone
Dm
   We become beyond timeless
G
Give you everything that I have ever owned
Dm
Soon I will have bought us up a house and home
Dm
    Up on the seventh floor, I know you love me...


[Chorus 3&4]

                       F       Am   G
I am loving you mooooore
                     F       Am   G
I am loving you, more
                      F       Am   G
I am loving you mooooore
                      F       Am   G
I am loving you, more

                      F       Am   G
I am loving you mooooore
                      F       Am   G
I am loving you, more
                      F       Am   G
I am loving you mooooore
                      F       Am   G
I am loving you, more


[Riff 1]

        F                 Am                G
e|--5-5-5------------------------------------------------|
B|-----------8-8-8----5-5-5------------------------------|
G|-----------------------------7-7-7----5-5-7-----4------|
D|--------------------------------------------3/5--------|
A|-------------------------------------------------------|
E|-------------------------------------------------------|


[Riff 2]

        F                 Am                G
e|--5-5-5------------------------------------------------|
B|-----------8-8-8----5-5-5------------------------------|
G|-----------------------------7-7-7----5-5-7--5--7\9----|
D|-------------------------------------------------------|
A|-------------------------------------------------------|
E|-------------------------------------------------------|


[Riff 3]
(variation before the bridge)

        F                 Am                G
e|--5-5-5------------------------------------------------|
B|-----------8-8-8----5-5-5-----------------5-3----------|
G|-----------------------------7-7-7----5-5-----5\7------|
D|-------------------------------------------------------|
A|-------------------------------------------------------|
E|-------------------------------------------------------|


[Bridge]
(rhythm guitar)

Only writing the chords once because I can't be bothered to figure out every strum.
If you have any improvement on this section please suggest it in the comments.

     G   Dm  Dm  Dm    G   Dm  Dm  Dm
e|-------------------------------------|
B|--(5)-(5)-(5)-(5)--(3)--(5)-(5)-(5)--|
G|--(7)-(5)-(5)-(5)--(4)--(5)-(5)-(5)--|  REPEAT w/ BRIDGE VOCALS
D|--(5)-(3)-(3)-(3)--(5)--(3)-(3)-(3)--|
A|-------------------------------------|
E|-------------------------------------|



************************************

| (n)  Ghost note
| /    Slide up
| \    Slide down 

************************************
Suggest correction
Creating personal tab
Creating personal tab
You can edit any tab online and save it as your Personal.

You can edit, replace or remove any tab part or add personal notes – all changes will be seen only by you.

Personal tabs can be accessed anytime from any device, even offline.
Learn more »
Give kudos to tab author, rate the tab!
1 2 3 4 5
comments
print report bad tab
guest
You may want to rate the tab now too:
select rating
Wanna post a correction for this tab? Suggest correction