Oops, an error
Loading. Please wait.

All Along The Watchtower Tab

version 2
version 2

Whole song

Interactive

33,370 views 27 this week
7 commentsread comments
1 2 3 4 5
x 9
add to favorites
launch autoscroll
font size
0
reset
how to read this tab
guitar tuner
Autoscroll
slow
fast
+/-
esc
set tempo
stop
Help us to improve Ultimate-Guitar.com Take our survey!
×
Author
Standard tuning
V - vibrate
/ - slide
p - pull off

Had to be forced to this for all you BSG nuts, there were no correct versions, or any
McCreary tabs for "All Along the Watchtower". Don't bother downloading the guitar pro
it's just the intro, which is harder to play then it seems, that's why I fixed it a bit 
it's very easy to play for everyone.

The guitar should have high tone, so it comes out sounding nice. I'm currently working
the solo as we speak.


You guys can figure out how many times to play what.
Intro
e|-------------------------------------------------------------------------|
B|-------------------------------------------------------------------------|
G|---6-6--6-----9-9-p-7-p-6----4----6-6-6---9-9-p-7-p-6--------------------|
D|-------------------------------------------------------------------------|
A|-------------------------------------------------------------------------|
E|-------------------------------------------------------------------------|


Verse
e|-------------------------------------------------------------------------|
B|-------------------------------------------------------------------------|
G|-------------------------------------------------------------------------|
D|----------------7-7-7----------------7-7-7--------------------7-7-7------|
A|----------4-5-7----------------4-5-7-------5v-----------4-5-7------------|
E|-9-9-9-9---------------9-9-9-9------------------9-9-9-9------------------|


e|-------------------------------------------------------------------------|
B|-------------------------------------------------------------------------|
G|-------------------------------------------------------------------------|
D|------------------7-6-7-6------------------------------------------------|
A|------------4-5-7----7---7-5v--------------------------------------------|
E|-9-9-9--9----------------------------------------------------------------|


Ending - You can play this part on two guitars, or which ever version you find suits best.

Guitar 1
e|-------------------------------------------------------------------------|
B|-------------------------------------------------------------------------|
G|-------------------------------------------------------------------------|
D|-------------------------------------------------------------------------|
A|----------5--5--4--4---------5--5--4--4-/-7v-----------5--5--4--4--------|
E|--9-9-9-9------------9-9-9-9-------------------9-9-9-9-------------------|

                                                (play this part twice)
Guitar 2
e|-------------------------------------------------------------------------|
B|-------------------------------------------------------------------------|
G|--6--7-/-6------6--7-/-6-/-9----6--7-/-6----6--7-/-6---------------------|
D|--6--7-/-6------6--7-/-6-/-9----6--7-/-6----6--7-/-6---------------------|
A|--4--5-/-4------4--5-/-4-/-7----4--5-/-4----4--5-/-4---------------------|
E|-------------------------------------------------------------------------|
   x4  x2 x2     x4 x2  x2  x1   x4 x2  x2   x4  x2 x2


Criticism is welcome, gotta get better somehow!


                B A T T L E S T A R  G A L A C T I C A
Suggest correction
comments
print report bad tab
7 comments total. Showing first comments.
+2 reply
breakingbad 40 Apr 14, 2009 11:12 AM

Ah! I meant TONE, not tune! ! ! ! !

+1 reply
kofta 10 Oct 30, 2009 03:23 PM

Thanks a lot man, waiting for the solo :D

0 reply
FallnEsposa Ely 10 Feb 18, 2012 12:59 PM

In the song, it sounds like the verse is all power chords. When I play along thats how I play it. Sounds great either way though! Nice tab, many thanks my friend.

guest
You may want to rate the tab now too:
select rating
Wanna post a correction for this tab? Suggest correction