Oops, an error
Loading. Please wait.

Roslin And Adama Tab

1,845 views 3 this week
1 commentread comment
1 2 3 4 5
please rate
add to favorites
launch autoscroll
font size
0
reset
how to read this tab
guitar tuner
Autoscroll
slow
fast
+/-
esc
set tempo
stop
Help us to improve Ultimate-Guitar.com Take our survey!
×
Author
this is my first tab and this isnt guitar in the original piece and i will add on soon i 
found this song very peaceful on the acoustic enjoy.....if you have any comment or 
(Constructive) criticism contact me a Rhodey _01@yahoo.com

I am a very very very big fan of the reimagined Battlestr Galactica and plan to put up 
more tabs for my favorite pieces enjoy.

Tempo= 88   Simple Folk feel

e|------------------------------------------------------------3----------------------|
B|-------------------------------------------1---------------------------------------|
G|---------3-------3--------3--------3-------0----------------3----------------------|
D|-------5-------5--------5--------5-----------------5------------------5------------|
A|-----3-------3--------3--------3-----------3----------------3----------------------|
E|-----------------------------------------------------------------------------------|

e|---1------3-------5-------6-------5------3----------------------------------------|
B|------------------1-------3-------1-----------------------------------------------|
G|---2------3------------------------------3-----------3--------3-------------------|
D|----------5---------------3--------------5---------5---------------1--------------|
A|---3--------------------------------------------3----------3----------------------|
E|----------------------------------------------------------------------------------|
               G#                                    F7
e|----------------------------------------------------------------------------------|
B|-------------8----------1------1------0-------------------------------------------|
G|--5------5---5----------2------2--------------------------------------------------|
D|--6------6---------------------------------8--7-----------------------------------|
A|------6---------6-----------3--------------3--------------------------------------|
E---4---------------------1-------------1-------------------------------------------|

e|------------------------------------------------------------|
B|------------------------------------------------------------|
G|---------------------------------------5--------------------|
D|-----5--8----5--8----5--8-----5--8----------5-----5---5--8--|
A|-----6-------6-------6--------6--------3----6-----3---6-----|
E|---8-------8-------8--------8----------3----------3---------|

************************************

| /   slide up
| \   slide down
| h   hammer-on
| p   pull-off
| ~   vibrato
| +   harmonic
| x   Mute note
| b   Bend
| pb  Pre-bend
| br  Bend release
| pbr Pre-bend release
| brb Bend release bend

************************************
Suggest correction new What's this?
You can suggest a correction to this tab. Community and Mods will review your correction and vote to approve or reject it.
comments
We did not receive enough feedback on this tab! Please rate:
print report bad tab
1 2 3 4 5
1 comment total.
0 reply
Rebmaker 27 wrote on August 28 2011, 12:58 pm

Hi !

You've done a great job, man !

But could you tell me what are all the chords in the end of song ? I think there are four different ones.

guest
You may want to rate the tab now too:
select rating
Please do not post tabs as comments. Select "correction" instead!