Oops, an error
Loading. Please wait.

Buses No Buses bass

599 views 1 this week
no commentswrite comment
1 2 3 4 5
3 more votes to show rating
add to favorites
×
Save as Personal and add changes to this tab that will be seen only by you. Learn more ›
×
You can save this tab as Personal to edit and correct it or add notes. All changes will be seen only by you. Learn more »
launch autoscroll
font size
0
reset
guitar tuner
edit
Autoscroll
slow
fast
+/-
esc
set tempo
stop
Difficulty
Buses/No Buses

Great song, great band. This is my first tab and it's not 100% accurate but it works 
fine.
During the intro, you can play my version (which sounds better IMO) or you can add the 
offs that the guitars play just check out the guitar tabs of this song and switch the 
for the 4 strings.

If you don't like it you're free to use this tab and better it. Just give me a bit of credit.

Intro/First Verse

G|------2----2---7-6---6----4--------|
D|-----------------------------------|
A|--2-2---2--------------------------| x10
E|-------------------7---------------|

Chorus

|------------------------------------|
|------------------------------------|
|---99999-7777-9999------------------| x4
|--------------------77777-----------|

Second Verse

|-------------------------------------------|
|-----------------------0-------------------|
|---2---------------------------------------|
|-------------------------------------------|

|-------------------------------------------------|
|---------0----2-----------0---2--4--2--0--2--0---|
|----2-----------------2--------------------------|
|-------------------------------------------------|

|----------------------------------------------------|
|------------00000000-22222222-----------------------|
|----22222222------------------------2-2-2-2-2-2-2-2-|
|----------------------------------------------------|

Chorus

|------------------------------------|
|------------------------------------|
|---99999-7777-9999------------------| x4
|--------------------77777-----------|


Bridge

|----11---11------9----9/11----11-----|
|--9----9----9--7---7-------/9----9---|
|-------------------------------------|
|-------------------------------------|

(not sure about this part, but play around))

|-----------------------------------------|
|-----12-----12--------9----------9-------|
|--10----10-----10--7----7---7--9---------|
|-----------------------------------------|

repeat bridge about 13 times; after the first 4 you just pluck and hold both notes for 2 measures


Chorus

|------------------------------------|
|------------------------------------|
|---99999-7777-9999------------------| x2
|--------------------77777-----------|


|------------------------------------|
|------------------------------------|
|---99999-7777-9999------------------| x6
|--------------------77777777777-----|


Too bad they broke up ;_;

            
            
Suggest correction
Creating personal tab
Creating personal tab
You can edit any tab online and save it as your Personal.

You can edit, replace or remove any tab part or add personal notes – all changes will be seen only by you.

Personal tabs can be accessed anytime from any device, even offline.
Learn more »
Give kudos to tab author, rate the tab!
1 2 3 4 5
comments
print report bad tab
guest
Wanna post a correction for this tab? Suggest correction