Oops, an error
Loading. Please wait.

Above The Clouds Of Pompeii Tab

version 4
version 4

Whole song

199 views 6 this week
no commentswrite comment
1 2 3 4 5
1 last vote to show rating
add to favorites
launch autoscroll
font size
0
reset
how to read this tab
guitar tuner
Autoscroll
slow
fast
+/-
esc
set tempo
stop
Author
Difficulty
Capo
intermediate
4th fret
About this tab version
Figured this out by ear according to the recorded version. Was this info helpful? Yes No
Title: Above The Clouds Of Pompeii
Artist: Bears Den
Tempo = 101


E |-----------------------0----------------------------|
B |--1--------1-----3--------------3-----------1-------|
G |--------0-----------0-------------------------------|
D |----------------------------------------------------|
A |--3-----------3-----------3-----------3-------------|
E |----------------------------------------------------|


-----------------------0----------------------------|
--1--------1-----3--------------3-----------1-------|
--------2-----------2-------------------------------|
--0-----------0-----------0-----------0-------------|
----------------------------------------------------|
----------------------------------------------------|


-----------------------0----------------------------|
--1--------1-----3--------------3-----------1-------|
--------2-----------2-------------------------------|
----------------------------------------------------|
--0-----------0-----------0-----------0-------------|
----------------------------------------------------|


-----------------------0----------------------------|----||
--1--------1-----3--------------3-----------1-------|----||
--------2-----------2-------------------------------|----||
--3-----------3-----------3-----------3-------------|----||
----------------------------------------------------|----||
----------------------------------------------------|----||

Chords:
C Dm Am F
Suggest correction
Give kudos to tab author, rate the tab!
1 2 3 4 5
comments
print report bad tab
guest
You may want to rate the tab now too:
select rating
Wanna post a correction for this tab? Suggest correction