Oops, an error
Loading. Please wait.

Elysium tab

version 2
version 2

Whole song

5,061 views 33 this week
no commentswrite comment
1 2 3 4 5
x 6
add to favorites
×
Save as Personal and add changes to this tab that will be seen only by you. Learn more ›
×
You can save this tab as Personal to edit and correct it or add notes. All changes will be seen only by you. Learn more »
launch autoscroll
font size
0
reset
how to read this tab
guitar tuner
edit
Autoscroll
slow
fast
+/-
esc
set tempo
stop
Author
Difficulty
-------------------------------------------------------------------------------
                             ELYSIUM - Bear's Den
-------------------------------------------------------------------------------
Tabbed by: CarsonD2704
E-mail: Carsond2704@gmail.com
NO CAPO
Tuning:EADGBe
Couldn't find any tabs for this so first attempt at tabbing completely by ear!

INTRO
 (G)
e|----3------3------3------3------3-----3------3-----3-----------------------|
B|----0------0------0------0------0-----0------0-----0-----------------------|
G|--0------0-------0------0------0-----0------0-----0------------------------|
D|---------------------------------------------------------------------------|
A|---------------------------------------------------------------------------|
E|3----3-3-----3-3----3-3----3-3----3-3----3-3---3-3-------------------------|

VERSE (lyrics in block below verse tab)
 (G)                         (Em)                         (D)
e|---3------3------3------3------3------3------3------3------2------2------2------2---|
B|---0------0------0------0------0------0------0------0------3------3------3------3---|
G|--0------0------0------0------0------0------0------0------0------0------0------0----|
D|----------------------------2----2-2----2-2----2-2----2-----------------------------|
A|--------------------------------------------------------2----2-2----2-2----2-2----2-|
E|3----3-3----3-3----3-3----3---------------------------------------------------------|
 (Cadd9)
e|---3-----3-----3------3----||
B|---3-----3-----3------3----||
G|--0-----0-----0------0-----||
D|---------------------------||
A|3---3-3----3-3---3-3----3--||
E|--------------------------3||(repeat)

Brother, do you believe in an afterlife
Where our souls will both collide
In some great Elysium
Way up in the sky
Free from our shackles, our chains
Our mouths, our brains
We'll open all the gates
And we will walk careless
Straight into the light

INTERLUDE
(At this point, the second guitar comes in. It seems to be mirroring these chords, except
on capo'd on the 7th fret with different chord shapes. It does not seem to have
a readily identifiable pattern, it seems to just be free-styling with these chord shapes.)
 (G)           (Em)           (D)
e|---3------3------3------3------2------2------2------2----------------------|
B|---0------0------0------0------3------3------3------3----------------------|
G|--0------0------0------0------0------0------0------0-----------------------|
D|--------------2----2-2----2------------------------------------------------|
A|----------------------------2----2-2----2-2----2-2-------------------------|
E|3----3-3----3--------------------------------------------------------------|(repeat once)

REPEAT THE VERSE

I've never felt so enlightened
With every page I turn
I only find myself feeling more alone
Posing questions to a silent universe
My very thoughts a curse
They just seem to multiply
Forever in my mind

"Brother, don't grow up" PRE-CHORUS/TAG THING
 (Am)                        (D/A)                         (Am)
e|---5------5------5------5-----------------------------------5------5------5|
B|---5------5------5------5------7------7------7------7-------5------5------5|
G|--5------5------5------5-------7------7------7------7------5------5------5-|
D|------------------------------7------7------7------7-----------------------|
A|---------------------------------------------------------------------------|
E|5----5-5----5-5----5-5----5-5----5-5----5-5----5-5-----5-5----5-5----5-5---|
                  (Cadd9)
e|-----5------3------3------3------3------3------3---------------------------|
B|-----5------3------3------3------3------3------3---------------------------|
G|----5------0------0------0------0------0------0----------------------------|
D|---------------------------------------------------------------------------|
A|---------3----3-3----3-3----3-3----3-3----3-3----3-3~----------------------|
E|5-5----5-------------------------------------------------------------------|

Brother, don't grow up
Brother, please never grow up

Now it switches to strumming, so here are all of the chords you're going to need over the next few sections:

     G       Em     D/A      Bm    Cadd9     Am
e|---3---|---3---|---2---|---2---|---3---|---0---|
B|---3---|---0---|---3---|---3---|---3---|---1---|
G|---0---|---0---|---2---|---4---|---0---|---2---|
D|---0---|---2---|---0---|---4---|---2---|---2---|
A|---2---|---2---|---0---|---2---|---3---|---0---|
E|---3---|---0---|---X---|---X---|---X---|---X---|

INTERLUDE

G | Em | D/A | D/A | (repeat 4 times)

BRIDGE

Bm          Cadd9           G
  Just hold out against the night
Bm               Cadd9          G
  And guard your hope with your life
         Am                D/A
For the darkness, she will come
       Am                            Cadd9
Oh and you will have nowhere left to run

CHORUS

            G                   Em
Oh but your eyes are wider than mine
               D/A
and help me to sleep
                 G            Em
I just hope that age does not erase
             D/A
all that you see
G             Em           D/A
    Don't let bitterness become you
G             Em                D/A
    Your only hopes are all within you

G   | Em | D/A ||
G   | Em | D/A ||

OUTRO

Bm          Cadd9           G   (Palm muted strumming)
  Just hold out against the night
Bm               Cadd9          G   (single strum)
  And guard your hope with your life

************************************

| ~   vibrato

************************************

            
            
Suggest correction
Creating personal tab
Creating personal tab
You can edit any tab online and save it as your Personal.

You can edit, replace or remove any tab part or add personal notes – all changes will be seen only by you.

Personal tabs can be accessed anytime from any device, even offline.
Learn more »
comments
print report bad tab
guest
You may want to rate the tab now too:
select rating
Wanna post a correction for this tab? Suggest correction