Oops, an error
Loading. Please wait.

The Love We Stole Tab

121 views 12 this week
no commentswrite comment
1 2 3 4 5
x 3
add to favorites
launch autoscroll
font size
0
reset
how to read this tab
guitar tuner
Autoscroll
slow
fast
+/-
esc
set tempo
stop
Help us to improve Ultimate-Guitar.com Take our survey!
×
Author
Difficulty
Capo
novice
3rd fret
It's not the Album version of the song, but a simple acoustic cover. Have fun!

If you're wondering how this version sounds, check out my cover video on youtube.
https://www.youtube.com/watch?v=ReModJgYzEQ




First Section of the Song - Fingerstyle

[Intro/Verse]

e|-----------------|-----------------|-----------------|-----------------|
B|-----------------|-----------------|-----------------|-----------------|
G|---4-------4-----|---4-------7-----|---6-------6-----|---6-------2-----|
D|-------0-------0-|-------0-------0-|-------0-------0-|-------0-------0-| 
A|-----------------|-----------------|-----------------|-----------------| 2x Intro
E|-3---3---3---3---|-3---3---7---7---|-5---5---5---5---|-5---5---2---2---| 4x Verse
  
   1 + 2 + 3 + 4 + 
                    

[Pre-Chorus] "The love that we stole, the love that we stole..."

e|-----------------|-----------------|-----------------|
B|-----------------|-----------------|-----------------|
G|---4-------4-----|---4-------7-----|---6-------2-----|
D|-------0-------0-|-------0-------0-|-------0-------0-|
A|-----------------|-----------------|-----------------|
E|-3---3---3---3---|-3---3---7---7---|-5---5---2---2---| 2x



[Chorus]

[Part 1] "Hey love can't you hear me calling..."


e|-----------------|-----------------|-----------------|-----------------|
B|-----------------|-----------------|-----------------|-----------------|
G|---4-------4-----|---4-------7-----|---6-------6-----|---6-------2-----|
D|-------0-------0-|-------0-------0-|-------0-------0-|-------0-------0-| 
A|-----------------|-----------------|-----------------|-----------------| 
E|-3---3---3---3---|-3---3---7---7---|-5---5---5---5---|-5---5---2---2---| 2x

[Part 2] "The love that we stole, the love that we stole"

                                                       ||Strum at the end of the third passage
e|-----------------|-----------------|-----------------||-x---------------|
B|-----------------|-----------------|-----------------||-0---------------|
G|---4-------4-----|---4-------7-----|---6-------2-----||-4---------------|
D|-------0-------0-|-------0-------0-|-------0-------0-||-0---------------|
A|-----------------|-----------------|-----------------||-2---------------|
E|-3---3---3---3---|-3---3---7---7---|-5---5---2---2---||-3---------------| 3x



Technically you could play the whole song with these tabs. The second time you play the pre-chorus and
chorus, you can extend the pre-chorus up to three and part one of the chorus up to four passages, since the
song is coming to an end.



Second section of the Song - Strumming

[Chords]

     G      Bm     Aadd   F#madd
e|---x------x------x------x--------|
B|---x------x------x------x--------|
G|---4------7------6------2--------|
D|---0------0------0------0--------|
A|---2------x------4------2--------|
E|---3------7------5------2--------|


Strumming pattern Verse/Chorus: 

G     : DD UUDU
Bm    : DUDU
Aadd  : DD UUDU
F#madd: DUDU


Strumming pattern pre-chorus:

G     : DD UUDU
Bm    : DUDU
Aadd  : DDU
F#madd: DDU



If you want to see how I play this song to get a better look at patterns, check out my youtube video!
https://www.youtube.com/watch?v=ReModJgYzEQ


************************************

| x   Dead note

************************************
Suggest correction
Give kudos to tab author, rate the tab!
1 2 3 4 5
comments
print report bad tab
guest
You may want to rate the tab now too:
select rating
Wanna post a correction for this tab? Suggest correction