Oops, an error
Loading. Please wait.

Body Bag bass

version 2
version 2

Whole song

Interactive

1,358 views 6 this week
no commentswrite comment
1 2 3 4 5
x 3
add to favorites
×
Save as Personal and add changes to this tab that will be seen only by you. Learn more ›
×
You can save this tab as Personal to edit and correct it or add notes. All changes will be seen only by you. Learn more »
launch autoscroll
font size
0
reset
guitar tuner
edit
Autoscroll
slow
fast
+/-
esc
set tempo
stop
-------------------------------------------------------------------------------
                             Body Bag - Beartooth
-------------------------------------------------------------------------------
Tabbed by: ctp10599
E-mail: ctp10599@gmail.com

the other bass tab had the wrong tuning and had some mistakes. thought i would show you guys how i play 
this song. This is also my first tab. Email me if you have any questions!

Tuning: Drop A#

0:10 ish
D#|------------------------------------------|
A#|------------------------------------------|
F|------------------------------------------|
A#|--13-12--0-0--10-12--0-0--13-12--16-16-13-|  x3


G|----------------------------------|                         Repeat these sections as needed until verse
D|----------------------------------|  
A|----------------------------------|
E|--5-5-5-5-5-5-5-5-8-8-8-8-8-8-8-8-|

   Verse: 0:31 - 0:51
G|---------------------------------------------------------------------------|
D|---------------------------------------------------------------------------|     Listen closely for timing  
A|---------------------------------------------------------------------------|    Alters slightly. Just open
E|--1p-0-0-0------1p-0-0-0-----------1p-0-0-0----1/4-4-4--1/4-4-4------------|open strumming between each pull
                                                                               off

Pre-Chorus
0:52 - 1:01
G|-------------------------------------|
D|-------------------------------------|
A|-------------------------------------|
E|-0~----8-8-1-1-0~--------8-8-1-1-0~--|


Chorus 
1:02 - 1:21
G|---------------------------------------------------------------------------|
D|---------------------------------------------------------------------------|
A|---------------------------------------------------------------------------|
E|--0(x16)--3(x16)--10(x16)--5(x16)-------------------------------------------------------------------|


Repeat the top two sections as many times as needed. The final time playing the second section you do not play
the 8's. 

1:43 - 2:03 Listen closely for the exact pattern. I roughly tabbed it. Slightly changes as well. 
G|------------------------------------------------------|
D|------------------------------------------------------|
A|------------------------------------------------------|
E|-0-0-0--0-0--0-0-0-0----------0-0--0--0-----0--0-0-0--|

Repeat Pre-Chorus and Chorus


2:45 - 2:54
G|---------------------------------------------------------------------------|
D|---------------------------------------------------------------------------|
A|---------------------------------------------------------------------------|
E|-1p-0-0-0-----1p-0-0-0--------1p-0-0-0-----1/4-4-4-1/4-4-4-----------------|

2:54 - 3:04
G|---------------------------------------------------------------------------------|
D|---------------------------------------------------------------------------------|
A|---------------------------------------------------------------------------------|
E|-1p-0-0-0---(Alt pick the A# string)-1p-0-0-0---(Alt pick the A# string)---------|

G|---------------------------------------------------------------------------|
D|---------------------------------------------------------------------------|
A|---------------------------------------------------------------------------|
E|-1p-0-0-0-(Alt pick the A# string)--1/4-4-4-1/4-4-4------------------------|

3:05 - 3:14
G|----------------------------------------------------|
D|----------------------------------------------------|
A|----------------------------------------------------|
E|--0-0----3-3----10-10-------------------------------|

Repeat Chrous

Repeat first section without open notes, and second section 3:26 - 3:37 (listen closely and you will get it)

3:37 - end

G|-------------------------------------|
D|-------------------------------------|
A|-------------------------------------|
E|-13-12--10-12-----0-0--0---0-0-0-----| x3

G|-------------------------------------|
D|-------------------------------------|
A|-------------------------------------|
E|-5-5-5-5-5-5-5-5-8-8-8-8-8-8-8-8-----| 


| /  slide up
| \  slide down
| h  hammer-on
| p  pull-off
| ~  vibrato
| +  harmonic
| x  Mute note
===============================================================================

            
            
Suggest correction
Creating personal tab
Creating personal tab
You can edit any tab online and save it as your Personal.

You can edit, replace or remove any tab part or add personal notes – all changes will be seen only by you.

Personal tabs can be accessed anytime from any device, even offline.
Learn more »
Give kudos to tab author, rate the tab!
1 2 3 4 5
comments
print report bad tab
guest
You may want to rate the tab now too:
select rating
Wanna post a correction for this tab? Suggest correction