Oops, an error
Loading. Please wait.

The Lines Tab

version 1
version 1

Whole song

Interactive

20,361 views 207 this week
6 commentsread comments
1 2 3 4 5
accurate
x 13
add to favorites
launch autoscroll
font size
0
reset
how to read this tab
guitar tuner
Tab Pro tools
  • play this tab
  • loop segment
  • change instrument
  • show fretboard
  • metronome
×
Best way to learn
"The Lines"
Autoscroll
slow
fast
+/-
esc
set tempo
stop
Contributor
Difficulty
Tuning
intermediate
C G C F A D
-------------------------------------------------------------------------------
                             Beartooth- The Lines
-------------------------------------------------------------------------------
Tabbed by: alex720
E-mail: alex.astrella@yahoo.com

Another awesome song by Beartooth, this one is one of my favorites off Disgusting!

Tuning:Drop C
Intro
0:09
e|--------------------------------------------------------------------------|
B|--------------------------------------------------------3-----------------|
G|--------------------------------------------------------3---------all-x4--|
D|--x-x-x-x-x--2--2-3-3--2--2-3-3-3--2--2--2-3-2-3--2--2--------------------|
A|--x-x-x-x-x--2--2-3-3--2--2-3-3-3--2--2--2-3-2-3--2--2--------------------|
E|--x-x-x-x-x--2--2-3-3--2--2-3-3-3--2--2--2-3-2-3--2--2--------------------|

Verse 1:
e|----------------------------------------|
B|----------------------------------------|
G|----------------------------------------|
D|----------3-3-3-3-3----------3-3-3-3-3--|
A|----------3-3-3-3-3----------3-3-3-3-3--|
E|--14-x14--3-3-3-3-3--14-x14--3-3-3-3-3--|

Pre-chorus (not too sure about this part):
e|--------------------------------------------------------|
B|--------------------------------------------------------|
G|--------------------------------------------------------|
D|--2--2--0h2h3h2--2--2--0h2h3h2--2--2--0h2h3--3-3-3-3-3--|
A|--2--2--0h2h3h2--2--2--0h2h3h2--2--2--0h2h3--3-3-3-3-3--|
E|--2--2--0h2h3h2--2--2--0h2h3h2--2--2--0h2h3--3-3-3-3-3--|

e|------------------------------------------------------------|
B|------------------------------------------------------------|
G|------------------------------------------------------------|
D|--2--2--0h2h3h2--2--2--0h2h3h2--2--2--0h2h3--3-3-3-3-3--2~--|
A|--2--2--0h2h3h2--2--2--0h2h3h2--2--2--0h2h3--3-3-3-3-3--2~--|
E|--2--2--0h2h3h2--2--2--0h2h3h2--2--2--0h2h3--3-3-3-3-3--2~--|

Chorus: (strumming pattern is easy enough to figure out)
e|--------------------------------------------------------------|
B|--------------------------------------------------------------|
G|--------------------------------------------------------------|
D|--5--x8--2------0------7-------5--x8--2------0----------------|
A|--3------2--x8--0--x8--7--x8---3------2--x8--0--x8---(break)--|
E|---------2------0------7--------------2------0----------------|

Repeat intro x4

Verse 2 is same as verse 1

Repeat pre-chorus

Chorus 2:
e|--------------------------------------|
B|--------------------------------------|
G|--------------------------------------|
D|--5--x8-2------0------7-------all-x2--|
A|--3-----2--x8--0--x8--7--x8-----------|
E|--------2------0------7---------------|

("what is the poison inside of me...")
e|-----------------------------------------------------------|
B|-----------------------------------------------------------|
G|--9-------12------7-------5------- 9-------12------7-------|
D|--x--x12--x--x12--x--x12--x--x12-- x--x12--x--x12--x--x24--|
A|--7-------10------5-------3------- 7-------10------5-------|
E|-----------------------------------------------------------|

Breakdown:
e|-----------------------------------------------------|
B|---------3------------------3------------------------|
G|---------3------------------3------------------------|
D|--2--1-------1---0~---3--1-------1--2--1----all--x6--|
A|--2--1-------1---0~---3--1-------1--2--1-------------|
E|--2--1-------1---0~---3--1-------1--2--1-------------|

when he starts yelling repeat the same thing twice; just don't let any of the chords ring
out except the first 2 power chord

Bridge?:

e|---------------------------------|
B|---------------------------------|
G|--9~-----9/12~---- 12/7~---------|
D|--x------x--x----- x--x-------x--|
A|--7~-----7/10~---- 10/5~------x--|
E|------------------------------x--|

Repeat the first chorus

Repeat the first part of the breakdown twice then it goes

e|---------------------------------------------------------------------------------------|
B|---------3-----------------------------------------------------------------------------|
G|---------3-----------------------------------------------------------------------------|
D|--2--1-------1---0---3--1-------1--2--1----all--x2-------------------------------------|
A|--2--1-------1---0---3--1-------1--2--1------------------------------------------------|
E|--2--1-------1---0---3--1-------1--2--1------------------------------------------------|

Any feedback or corrections are welcome!

************************************

| /   slide up
| \   slide down
| h   hammer-on
| p   pull-off
| ~   vibrato
| +   harmonic
| x   Mute note
| b   Bend
| pb  Pre-bend
| br  Bend release
| pbr Pre-bend release
| brb Bend release bend

************************************
comments
print report bad tab
6 comments total. Showing first comments.
-2 reply
chadwickj098 wrote on July 20 2014, 03:53 pm

Lack of accuracy.

-1 reply
chadwickj098 wrote on July 25 2014, 08:46 pm

The intro is wrong, Prechorus is wrong, The breakdown has some minor errors, each chord in the chorus should be (x16). I tried playing with the song using this version and noticed those right away. That's why I made my own and gave yours a low rating.

0 reply
Generalpizzaguy wrote on August 10 2014, 03:16 pm

Lack of accuracy. Clearly wrong.

I want to post or [tab]
guest
You may want to rate the tab now too:
select rating
Please do not post tabs as comments. Select "correction" instead!