Oops, an error
Loading. Please wait.

Country Mike Tab

172 views 1 this week
no commentswrite comment
1 2 3 4 5
3 more votes to show rating
add to favorites
launch autoscroll
font size
0
reset
how to read this tab
guitar tuner
Autoscroll
slow
fast
+/-
esc
set tempo
stop
Help us to improve Ultimate-Guitar.com Take our survey!
×
country mike


beastie boys


TRANSCRIBED BY RUDY GUZMAN


guzman_84@hotmail.com




  gt1                                                        who's country mike?...
e:---------2-2-2-2-2-2-2-2-2-2-2-2-2----------------------------|
B:---------3-3-3-3-3-3-3-3-3-3-3-3-3--2-2-2-2-2-2-2-2-2-2-2-2-2-|
G:---------2-2-2-2-2-2-2-2-2-2-2-2-2--2-2-2-2-2-2-2-2-2-2-2-2-2-|
D:-------0-0-0-0-0-0-0-0-0-0-0-0-0-0--2-2-2-2-2-2-2-2-2-2-2-2-2-|
A:-0-2-4------------------------------0-0-0-0-0-0-0-0-0-0-0-0-0-|
E:--------------------------------------------------------------|

  gt2
e:-------12--------14--------15--------17--20b-20b-19-17~~~-|
B:----13--------15--------16--------18----------------------|
G:-12--------14--------15--------17-------------------------|
D:----------------------------------------------------------|
A:----------------------------------------------------------|
E:----------------------------------------------------------|

  gt1 i'm country mike?...                              x4
e:-2-2-2-2-2-2-2-2-2-2-2-2-2----------------------------|
B:-3-3-3-3-3-3-3-3-3-3-3-3-3--2-2-2-2-2-2-2-2-2-2-2-2-2-|
G:-2-2-2-2-2-2-2-2-2-2-2-2-2--2-2-2-2-2-2-2-2-2-2-2-2-2-|
D:-0-0-0-0-0-0-0-0-0-0-0-0-0--2-2-2-2-2-2-2-2-2-2-2-2-2-|
A:----------------------------0-0-0-0-0-0-0-0-0-0-0-0-0-|
E:------------------------------------------------------|


e:-------12--------14--------15--------17--20b-17b-----|
B:----13--------15--------16--------18-------------17b-|
G:-12--------14--------15--------17--------------------|
D:-----------------------------------------------------|
A:-----------------------------------------------------|
E:-----------------------------------------------------|

e:-------12--------14--------15--------17--20b-20-19-17----------|
B:----13--------15--------16--------18------------------20-18----|
G:-12--------14--------15--------17---------------------------19-|
D:---------------------------------------------------------------|
A:---------------------------------------------------------------|
E:---------------------------------------------------------------|


e:-------12--------14--------15--------17--20b-20b-19-17----------|
B:----13--------15--------16--------18-------------------20-18----|
G:-12--------14--------15--------17----------------------------19-|
D:----------------------------------------------------------------|
A:----------------------------------------------------------------|
E:----------------------------------------------------------------|

e:-------------------------------------------|
B:-------------17--20--20b-20b--20p17----20b-|
G:-19-19-17-19------------------------19-----|
D:-------------------------------------------|
A:-------------------------------------------|
E:-------------------------------------------|

  gt1 i'm country mike?...                              x4
e:-2-2-2-2-2-2-2-2-2-2-2-2-2----------------------------|
B:-3-3-3-3-3-3-3-3-3-3-3-3-3--2-2-2-2-2-2-2-2-2-2-2-2-2-|
G:-2-2-2-2-2-2-2-2-2-2-2-2-2--2-2-2-2-2-2-2-2-2-2-2-2-2-|
D:-0-0-0-0-0-0-0-0-0-0-0-0-0--2-2-2-2-2-2-2-2-2-2-2-2-2-|
A:----------------------------0-0-0-0-0-0-0-0-0-0-0-0-0-|
E:------------------------------------------------------|


                                                    x2 who's country mike?...
e:-2-2-2-2-2-2-2-2-2-2--------------------------------|
B:-3-3-3-3-3-3-3-3-3---3----2-2-2-2-2-2-2-2-2-2-2-----|
G:-2-2-2-2-2-2-2-2-2-----2--2-2-2-2-2-2-2-2-2-2---2---|
D:-0-0-0-0-0-0-0-0-0--------2-2-2-2-2-2-2-2-2-2-----2-|
A:--------------------------0-0-0-0-0-0-0-0-0-0-------|
E:----------------------------------------------------|


   i'm country mike?...                              
e:-2-2-2-2-2-2-2-2-2-2-2-2-2----------------------------|
B:-3-3-3-3-3-3-3-3-3-3-3-3-3--2-2-2-2-2-2-2-2-2-2-2-2-2-|
G:-2-2-2-2-2-2-2-2-2-2-2-2-2--2-2-2-2-2-2-2-2-2-2-2-2-2-|
D:-0-0-0-0-0-0-0-0-0-0-0-0-0--2-2-2-2-2-2-2-2-2-2-2-2-2-|
A:----------------------------0-0-0-0-0-0-0-0-0-0-0-0-0-|
E:------------------------------------------------------|


e:-------12--------14--------15--------17--20b-20b-19-17-------|
B:----13--------15--------16--------18-------------------20----|
G:-12--------14--------15--------17-------------------------19-|
D:-------------------------------------------------------------|
A:-------------------------------------------------------------|
E:-------------------------------------------------------------|

e:-2---------2------------------------------------------------|
B:-3------2--3------------------------------------------------|
G:-2------2--2------------------------------------------------|
D:-0------2--0------------------------------------------------|
A:--------0---------------------------------------------------|
E:------------------------------------------------------------|


hillo son mex

29/03/12
Suggest correction
Give kudos to tab author, rate the tab!
1 2 3 4 5
comments
print report bad tab
guest
You may want to rate the tab now too:
select rating
Wanna post a correction for this tab? Suggest correction