Oops, an error
Loading. Please wait.

Electric Worm Bass Tab

version 1
version 1

Whole song

1,449 views 1 this week
no commentswrite comment
1 2 3 4 5
1 last vote to show rating
add to favorites
launch autoscroll
font size
0
reset
guitar tuner
Autoscroll
slow
fast
+/-
esc
set tempo
stop
Help us to improve Ultimate-Guitar.com Take our survey!
×
Author
Difficulty
novice
This is my first one. It should be right. Really easy to play.


Verse
G|--------------------------------------------|
D|------h----h----------------h----h----------|
A|----1415-1415-19--20------1415-1415-14--12--|
E|--------------------------------------------|
B|-15-------------------15--------------------|

G|--------------------------------------------|
D|------h----h----------------h----h----------|
A|----1415-1415-19--20------1415-1415-19--12--|
E|--------------------------------------------|
B|-15-------------------15--------------------|

Chorus
G|-----------------------------------------------|
D|-----------------------------------------------|
A|-----------------------------------------------|
E|--15-1515-1515-151515-15-15-17-17--17--17--17--|
B|-----------------------------------------------|

G|-----------------------------------------------|
D|-----------------------------------------------|
A|-----------------------------------------------|
E|19-15-1515-1515-151515-15-15-17-17--17--17--17-|
B|-----------------------------------------------|
Suggest correction
Give kudos to tab author, rate the tab!
1 2 3 4 5
comments
print report bad tab
guest
You may want to rate the tab now too:
select rating
Wanna post a correction for this tab? Suggest correction