Oops, an error
Loading. Please wait.

Electric Worm Bass Tab

version 2
version 2

Whole song

1,476 views 1 this week
no commentswrite comment
1 2 3 4 5
please rate
add to favorites
launch autoscroll
font size
0
reset
guitar tuner
Autoscroll
slow
fast
+/-
esc
set tempo
stop
Help us to improve Ultimate-Guitar.com Take our survey!
×
Author
Beastie Boys - Electric Worm

This song is so relaxing. Try putting some warm sound effects in your bass while playing this.
I haven't found all variations in bridge3, but that's no biggie.

main riff:
|-------------------------|
|-------------------14-15-|
|-----14h15-14h15---------|
|-17----------------------|

|-------------------------|
|-------------------------|
|-----14h15-14h15---14-12-|
|-17----------------------| as many as needed

intermezzo:
|-------------------------|-----------------------------|
|-------------------------|-----------------------------|
|-------------------------|-------------------------3---|
|-3-33-33-3-3/5-55-55-5-5\|-3-33-33-3-3/5-55-55---5---5-|

main riff again
intermezzo again

bridge1: (2x)
|------------------------|
|------------------------|
|------------------------|
|-------------------12b--| (very light, little vibrated)

|------------------------|
|------------------------|
|--------------------3---|
|------------------35---5|

main riff again
intermezzo again
main riff again

bridge2:
|-----------------------|
|-----------------14b---| (1/2 bend, sounds like 15)
|-----------------------|
|-5-5----------17-------|

|-----------------------|
|-----------------------|
|-------------------3--3|
|-5-5-------------5--53-|

|-----------------------|
|-----------------14b---| (1/2 bend, sounds like 15)
|-----------------------|
|-5-5----------17-------|

|-----------------------|
|-----------------------|
|-------------------3---|
|-3-3-------------5---5-|

intermezzo again

bridge3:
|-----|-----------------|
|-----|-----------------|
|-----|--------------353|
|-5---|-5----------5----| 8x (make variations on the 353)

main riff again
intermezzo again

|---------|
|---------|
|---------|
|-5-5-----|

Enjoy
Suggest correction
What's this?
You can suggest a correction to this tab. Community and Mods will review your correction and vote to approve or reject it.
comments
We did not receive enough feedback on this tab! Please rate:
print report bad tab
1 2 3 4 5
guest
You may want to rate the tab now too:
select rating
Please do not post tabs as comments. Select "correction" instead!