Oops, an error
Loading. Please wait.

Fight For Your Right To Party Tab

version 1
version 1

Whole song

Interactive

56,424 views 57 this week
5 commentsread comments
1 2 3 4 5
x 13
add to favorites
launch autoscroll
font size
0
reset
how to read this tab
guitar tuner
×
Best way to learn
"Fight For Your Right To Party"
Autoscroll
slow
fast
+/-
esc
set tempo
stop
Difficulty
novice
Let it ring
e|-----------------|
B|-----------------|
G|-----------------|
D|--------6--------|
A|--------6--------|
E|--------4--------|

 You wake up late for school man you don't wanna go,
e|---------------------------------|
B|---------------------------------|
G|-----------------4-----6---------|
D|--------6--------4-----6---------| (Repeat for all verses)
A|--------6--------2-----4---------|
E|--------4------------------------|

 You gotta fight,for your right
e|---------------------|
B|---------------------|
G|--------6---4--------|
D|--------6---4--------|
A|--------4---2--------|
E|---------------------|

To Party
e|---------------------------------|
B|---------------------------------|
G|------------------4-----6--------|
D|--------6---------4-----6--------|
A|--------6---------2-----4--------|
E|--------4------------------------|

Then Back To
e|---------------------------------|
B|---------------------------------|
G|------------------4-----6--------|
D|--------6---------4-----6--------|
A|--------6---------2-----4--------|
E|--------4------------------------|
Suggest correction
comments
print report bad tab
5 comments total. Showing first comments.
0 reply
HorrorFiend 95 Mar 01, 2007 11:42 AM

wtf how did this get accepted,. but mine didnt?

0 reply
dizzaltON 10 Jul 23, 2007 02:24 PM

nice tab

+2 reply
conman5895 10 Aug 17, 2007 08:27 AM

its ok but your missing some stuff in the verse listen to the song to see what im mean

guest
You may want to rate the tab now too:
select rating
Wanna post a correction for this tab? Suggest correction