Oops, an error
Loading. Please wait.

Fight For Your Right To Party Bass Tab

version 3
version 3

Whole song

Interactive

23,588 views 66 this week
2 commentsread comments
1 2 3 4 5
x 6
add to favorites
launch autoscroll
font size
0
reset
guitar tuner
Autoscroll
slow
fast
+/-
esc
set tempo
stop
Help us to improve Ultimate-Guitar.com Take our survey!
×
Author
Difficulty
Tuning Standard

[Intro]

G|-----------|      G|---------------|
D|-----------| (x7) D|---------------| (play on eighth time)
A|-----2-4---|      A|-----2-4-2-----|
E|-4-4-------|      E|-4-4-------2-4-|

[Verse]
G|------------------------------------------------|
D|------------------------------------------------| (x3)
A|------------------------------------2-4-----2-4-|
E|-4-4-4-4-4-4-4-4-4-4-4-4-4-4-4--4-4-----4-4-----|

G|-----------------------------------------------|
D|-----------------------------------------------| (play on fourth time)
A|------------------------------------2-4--------|
E|-4-4-4-4-4-4-4-4-4-4-4-4-4-4-4--4-4-----4------|

[Chorus]
G|-------------------------------------------|
D|-------------------------------------------|
A|-4-4------2-4-----2-4-----2-4-----2--4-2---|
E|------4-4-----4-4-----4-4-----4-4--------2-|

[Verse]
G|------------------------------------------------|
D|------------------------------------------------| (x3)
A|------------------------------------2-4-----2-4-|
E|-4-4-4-4-4-4-4-4-4-4-4-4-4-4-4--4-4-----4-4-----|

G|-----------------------------------------------|
D|-----------------------------------------------| (play on fourth time)
A|------------------------------------2-4--------|
E|-4-4-4-4-4-4-4-4-4-4-4-4-4-4-4--4-4-----4------|

G|------------------------------------------|
D|------------------------------------------|
A|-4-4------2-4-----2-4-----2-4-----2-4-----|
E|------4-4-----4-4-----4-4-----4-4---------|

[Bridge]
G|-----------------|
D|-----------------| (x4)
A|-----------------|
E|-0-0-0-0-0-0-0-3-|

[Solo]
G|----------------|
D|----------------| (x4)
A|-----2-4----2-4-|
E|-4-4-----4-4----|

[Verse]
G|------------------------------------------------|
D|------------------------------------------------| (x3)
A|------------------------------------2-4-----2-4-|
E|-4-4-4-4-4-4-4-4-4-4-4-4-4-4-4--4-4-----4-4-----|

G|-----------------------------------------------|
D|-----------------------------------------------| (play on fourth time)
A|------------------------------------2-4--------|
E|-4-4-4-4-4-4-4-4-4-4-4-4-4-4-4--4-4-----4------|

[Chorus]
G|--------------------------------------|
D|--------------------------------------| (x2)
A|-4-4------2-4-----2-4-----2-4-----2-4-|
E|------4-4-----4-4-----4-4-----4-4-----|

[Bridge]
G|-----------------|
D|-----------------| (x4)
A|-----------------|
E|-0-0-0-0-0-0-0-3-|

[Outro]
G|---------|
D|---------| (x7)
A|-----2-4-|
E|-4-4-----|

G|----------------|
D|----------------|
A|-----2--4-2-----|
E|-4-4--------2-4-|
Suggest correction
comments
print report bad tab
2 comments total.
+2 reply
allunderstood 67 Feb 16, 2012 07:41 PM

Close enough for its a little off. First the tuning is a half step down. Then the intro\verse\chorus does not follow the guitar like this:

G -----------
D -----------
A -----2-4---
E -4-4-------

instead is just strums this:

E -4-4-4-4-4 (with the half step it would be 5-5-5-5)

0 reply
Tyco666 10 May 01, 2016 06:52 AM

Half a step doesn't mean shit when you the bass doesn't play an Eb. Agree 100% though, the bass just pedals on Ab for most of the song, it doesn't follow guitar.

guest
You may want to rate the tab now too:
select rating
Wanna post a correction for this tab? Suggest correction