Oops, an error
Loading. Please wait.

Fight For Your Right To Party tab

version 4
version 4

Whole song

Interactive

40 views 6 this week
no commentswrite comment
1 2 3 4 5
3 more votes to show rating
add to favorites
×
Save as Personal and add changes to this tab that will be seen only by you. Learn more ›
×
You can save this tab as Personal to edit and correct it or add notes. All changes will be seen only by you. Learn more »
launch autoscroll
font size
0
reset
how to read this tab
guitar tuner
edit
Autoscroll
slow
fast
+/-
esc
set tempo
stop
About this tab version
This is an awesome song by Beastie Boys. Once you learn how to play it, it will sound really good. Hope you enjoy :). Was this info helpful? Yes No
[Intro] (0:00)
e|---------------------------------------------------------------|
B|---------------------------------------------------------------|
G|---------------------------------------------------------------|
D|--6~~~~~~~~~~~~~~~~~~~~~---------------------------------------|
A|--6~~~~~~~~~~~~~~~~~~~~~---------------------------------------|
E|--4~~~~~~~~~~~~~~~~~~~~~---------------------------------------|

[Riff] (0:08)
e|---------------------------------------------------------------|
B|---------------------------------------------------------------|
G|--------5---7--------------------------------------------------| (x7)
D|--5-5---5---7--------------------------------------------------|
A|--5-5---3---5--------------------------------------------------|
E|--3-3----------------------------------------------------------|

[Verse 1] (0:22)
P.M.|--------------------------------
e|-----------------------------------------------------------------------|
B|-----------------------------------------------------------------------|
G|-------------------------------------------5---7----------5---7--------|
D|------------------------------------5--5---5---7---5--5---5---7--------| (x4)
A|------------------------------------5--5---3---5---5--5---3---5--------|
E|----5-5-5-5-5-5-5-5-5-5-5-5-5-5-5-5-3--3-----------3--3----------------|

[Chorus 1] (0:50)
You gotta fight..
e|---------------------------------------------------------------|
B|---------------------------------------------------------------|
G|---7--7--------------------------------------------------------|
D|---7--7--------------------------------------------------------|
A|---5--5--------------------------------------------------------|
E|---------------------------------------------------------------|

For your right.. (0:52)
*Does not play*

To party...(0:54)
e|---------------------------------------------------------------|
B|---------------------------------------------------------------|
G|--------5---7--------------------------------------------------| (x4)
D|--5-5---5---7--------------------------------------------------|
A|--5-5---3---5--------------------------------------------------|
E|--3-3----------------------------------------------------------|

[Verse 2] (1:02)
P.M.|--------------------------------
e|-----------------------------------------------------------------------|
B|-----------------------------------------------------------------------|
G|-------------------------------------------5---7----------5---7--------|
D|------------------------------------5--5---5---7---5--5---5---7--------| (x4)
A|------------------------------------5--5---3---5---5--5---3---5--------|
E|----5-5-5-5-5-5-5-5-5-5-5-5-5-5-5-5-3--3-----------3--3----------------|

[Chorus 2] (1:29)
You gotta fight..
e|---------------------------------------------------------------|
B|---------------------------------------------------------------|
G|---7--7--------------------------------------------------------|
D|---7--7--------------------------------------------------------|
A|---5--5--------------------------------------------------------|
E|---------------------------------------------------------------|

For your right.. (1:31)
(Does not play)

To party...(1:33)
e|---------------------------------------------------------------|
B|---------------------------------------------------------------|
G|--------5---7--------------------------------------------------| (x4)
D|--5-5---5---7--------------------------------------------------|
A|--5-5---3---5--------------------------------------------------|
E|--3-3----------------------------------------------------------|

[Bridge] (1:41)
e|---------------------------------------------------------------|
B|---------------------------------------------------------------|
G|---------------------------------------------------------------|
D|---------------------------------------------------------------| (x4)
A|---------------------------------------------------------------|
E|--0-0-0-0-0-0-0-3b---------------------------------------------|

[Solo] You gotta fight.. (1:48)
e|--------------------------------16------------------------------------------------|
B|-----------------------18---------------------------------------------------------|
G|---19b---19b---19--16--18--18b------18b------------------------------16-----------|
D|------------------------------------------------------------16h17h18--------------|
A|---------------------------------------------------16h17h18-----------------------|
E|----------------------------------------------------------------------------------|

e|-----------------------------19p18p16---------------------------------------------|
B|--------------------------------------19--16---19--16--19-19b---------------------|
G|--18--16--18b---17~~~~~~~~~~~-----------------------------------------------------|
D|----------------------------------------------------------------------------------|
A|----------------------------------------------------------------------------------|
E|----------------------------------------------------------------------------------|

[Verse 3] (2:02)
P.M.|--------------------------------
e|-----------------------------------------------------------------------|
B|-----------------------------------------------------------------------|
G|-------------------------------------------5---7----------5---7--------|
D|------------------------------------5--5---5---7---5--5---5---7--------| (x4)
A|------------------------------------5--5---3---5---5--5---3---5--------|
E|----5-5-5-5-5-5-5-5-5-5-5-5-5-5-5-5-3--3-----------3--3----------------|

[Extended Chorus 3] (2:31)
You gotta fight..
e|---------------------------------------------------------------|
B|---------------------------------------------------------------|
G|---7--7--------------------------------------------------------|
D|---7--7--------------------------------------------------------|
A|---5--5--------------------------------------------------------|
E|---------------------------------------------------------------|

For your right.. (2:33)
*Does not play*
To party...(2:35)
e|---------------------------------------------------------------|
B|---------------------------------------------------------------|
G|--------5---7--------------------------------------------------| (x4)
D|--5-5---5---7--------------------------------------------------|
A|--5-5---3---5--------------------------------------------------|
E|--3-3----------------------------------------------------------|

You gotta fight.. (2:42
e|---------------------------------------------------------------|
B|---------------------------------------------------------------|
G|---7--7--------------------------------------------------------|
D|---7--7--------------------------------------------------------|
A|---5--5--------------------------------------------------------|
E|---------------------------------------------------------------|

For your right.. (2:44)
*Does not play*

To party...(2:46)
e|---------------------------------------------------------------|
B|---------------------------------------------------------------|
G|--------5---7--------------------------------------------------| (x4)
D|--5-5---5---7--------------------------------------------------|
A|--5-5---3---5--------------------------------------------------|
E|--3-3----------------------------------------------------------|

[Bridge] (2:53)
e|---------------------------------------------------------------|
B|---------------------------------------------------------------|
G|---------------------------------------------------------------|
D|---------------------------------------------------------------| (x4)
A|---------------------------------------------------------------|
E|--0-0-0-0-0-0-0-3b---------------------------------------------|

[Outro] (3:00) Party......
e|---------------------------------------------------------------|
B|---------------------------------------------------------------|
G|--------5---7--------------------------------------------------| (x8)
D|--5-5---5---7--------------------------------------------------|
A|--5-5---3---5--------------------------------------------------|
E|--3-3----------------------------------------------------------|

[Last Chord] (3:14]
End on
e|--------------------------------------------------------------|
B|--------------------------------------------------------------|
G|--------------------------------------------------------------| 
D|--5-----------------------------------------------------------|
A|--5-----------------------------------------------------------|
E|--3-----------------------------------------------------------|


*****************************************

| h - Hammer On
| p - Pull Off
| ~ - Vibrato
| P.M. - Palm Mute
| b - Bend

*****************************************

            
            
Suggest correction
Creating personal tab
Creating personal tab
You can edit any tab online and save it as your Personal.

You can edit, replace or remove any tab part or add personal notes – all changes will be seen only by you.

Personal tabs can be accessed anytime from any device, even offline.
Learn more »
Give kudos to tab author, rate the tab!
1 2 3 4 5
comments
print report bad tab
guest
You may want to rate the tab now too:
select rating
Wanna post a correction for this tab? Suggest correction