Oops, an error
Loading. Please wait.

Futtermans Rule Bass Tab

2,320 views 3 this week
3 commentsread comments
1 2 3 4 5
accurate
x 7
add to favorites
launch autoscroll
font size
0
reset
guitar tuner
Tab Pro tools
  • play this tab
  • loop segment
  • change instrument
  • show fretboard
  • metronome
Autoscroll
slow
fast
+/-
esc
set tempo
stop
Song: "Futterman's Rule"
Band: The Beastie Boys
Album: Ill Communication
Bassist: Adam "MCA" Yauch

My favorite Beastie boys instrumental. Yauch plays it on his upright but it 
sounds really good on electric too.


Part I:

G:-----------8-----------------------------8----------
D:---------------4---6-7-8-------------------6-7-8-
A:------6-6---------------------------6-6------------
E:------------------------------------------------------

Part II:

G:---------8-10---8----------------------------------------------
D:----------------------10-8-10-8-10---4-4-4--6--6-6-7-8
A:--6-6-----------------------------------------------------------
E:------------------------------------------------------------------

Part III:

G:---4--4-4-4-4----6--6-6--6-6--8--8-8-8--11--11--11-11-11
D:--------------------------------------------------------------------------
A:--------------------------------------------------------------------------
E:--------------------------------------------------------------------------

Those are all the parts; it's easy to put them together. 

tabbed by: The Landlord
comments
print report bad tab
3 comments total.
0 reply
Steve_da_dark wrote on April 3 2002, 12:00 am

this is a good tab sounds 100% right!

0 reply
dmbatman wrote on November 29 2007, 09:57 am

the only problem seems to be Part III.

G:---4--6-4-6-4---6--10-6-10-6---8h11--8-11---8-11-8-11-8~||

other than
that it all seems right...

0 reply
dmbatman wrote on November 29 2007, 09:58 am

That should have been a correction not a comment. sorry if this posts twice...

the only problem seems to be Part III.


G:---4--6-4-6-4---6--10-6
-10-6---8h11--8-11---8-11
-8-11-8~

other than that it all seems right

I want to post or [tab]
guest
You may want to rate the tab now too:
select rating
Please do not post tabs as comments. Select "correction" instead!