Oops, an error
Loading. Please wait.

Gala Event Bass Tab

591 views 3 this week
3 commentsread comments
1 2 3 4 5
please rate
add to favorites
launch autoscroll
font size
0
reset
guitar tuner
Autoscroll
slow
fast
+/-
esc
set tempo
stop
Help us to improve Ultimate-Guitar.com Take our survey!
×
Author
Difficulty
novice
Verse
G|------------------------|                           
D|------19----------------|                                 
A|------------------------|                                 
E|--17~-----23~-23-232323-|                              

Bridge
G|------------------------|
D|------------------------|
A|--17~-------------------|
E|------------------------|

Chorus
G|----------------|
D|----------------| x3
A|----------------|
E|-68-6-5--10-12~-|

G|--------------|
D|--------------|
A|--------------|
E|-68-6-5—3-5~--|
Suggest correction
Give kudos to tab author, rate the tab!
1 2 3 4 5
comments
print report bad tab
3 comments total.
0 reply
JP240Z 10 wrote on December 20 2008, 02:49 pm

i dont have a 24 fret bass so i play it like this and also spread it out over more strings
g
d 7~
a 8 888~
e5~
and then after the bridge

a 5 7~
e6h8 6 5
just my opinion though

0 reply
JP240Z 10 wrote on December 20 2008, 02:51 pm

damnit the numbers got all messed up when i posted it just follow the same pattern as the tab

0 reply
vomitingself 105 wrote on December 17 2013, 06:11 am

I also think that play this way is easier:
G|------------------------|
D|------19----------------|
A|------------18-18-18-18-|
E|--17~-------------------|

guest
You may want to rate the tab now too:
select rating
Please do not post tabs as comments. Select "correction" instead!