Oops, an error
Loading. Please wait.

Girls Bass Tab

version 1
version 1

Whole song

Interactive

4,642 views 3 this week
no commentswrite comment
1 2 3 4 5
please rate
add to favorites
launch autoscroll
font size
0
reset
guitar tuner
Autoscroll
slow
fast
+/-
esc
set tempo
stop
Help us to improve Ultimate-Guitar.com Take our survey!
×
As we all know no guitar or bass in the song, but if there was it would follow the "Bum 
bum bum bum..." behind the actual lyrics... All just one riff, but hey if thurs anything 
doing, it's worth doing right...


Comes in at 36 seconds

G---------------------------|---------------------------|
D---------------------------|---------------------------|
A-8----8----8---5----5----5-|-8----8----8---5----5----5-|
E---8----8--------5----5----|---8----8--------5----5----|

G---------------------------|---------------------------|
D---------------------------|---------------------------|
A-8----8----8---5----5----5-|-8----8----8---5----5----5-|
E---8----8--------5----5----|---8----8--------5----5----|

G---------------------------|---------------------------|
D---------------------------|---------------------------|
A-8----8----8---5----5----5-|-8----8----8---5----5----5-|
E---8----8--------5----5----|---8----8--------5----5----|

G---------------------------|------|
D---------------------------|------|
A-8----8----8---5----5----5-|-8----| (Pause For 4 Seconds)
E---8----8--------5----5----|------|

G---------------------------|---------------------------|
D---------------------------|---------------------------|
A-8----8----8---5----5----5-|-8----8----8---5----5----5-|
E---8----8--------5----5----|---8----8--------5----5----|

G---------------------------|---------------------------|
D---------------------------|---------------------------|
A-8----8----8---5----5----5-|-8----8----8---5----5----5-|
E---8----8--------5----5----|---8----8--------5----5----|

G---------------------------|---------------------------|
D---------------------------|---------------------------|
A-8----8----8---5----5----5-|-8----8----8---5----5----5-|
E---8----8--------5----5----|---8----8--------5----5----|

G---------------------------|------|
D---------------------------|------|
A-8----8----8---5----5----5-|-8----| (Jocking Mike D. To My Dismay
E---8----8--------5----5----|------|

Break at 1:29 - come back in at 1:48

G---------------------------|---------------------------|
D---------------------------|---------------------------|
A-8----8----8---5----5----5-|-8----8----8---5----5----5-|
E---8----8--------5----5----|---8----8--------5----5----|

G---------------------------|---------------------------|
D---------------------------|---------------------------|
A-8----8----8---5----5----5-|-8----8----8---5----5----5-|
E---8----8--------5----5----|---8----8--------5----5----|

G---------------------------|---------------------------|
D---------------------------|---------------------------|
A-8----8----8---5----5----5-|-8----8----8---5----5----5-|
E---8----8--------5----5----|---8----8--------5----5----|

G---------------------------|------|
D---------------------------|------|
A-8----8----8---5----5----5-|-8----| END
E---8----8--------5----5----|------|
Suggest correction
Give kudos to tab author, rate the tab!
1 2 3 4 5
comments
print report bad tab
guest
You may want to rate the tab now too:
select rating
Please do not post tabs as comments. Select "correction" instead!