Oops, an error
Loading. Please wait.

Girls Tab

version 3
version 3

Whole song

Interactive

1,187 views 1 this week
4 commentsread comments
1 2 3 4 5
2 more votes to show rating
add to favorites
launch autoscroll
font size
0
reset
how to read this tab
guitar tuner
Autoscroll
slow
fast
+/-
esc
set tempo
stop
Help us to improve Ultimate-Guitar.com Take our survey!
×
Author
Difficulty
                           Girls- THe Beastie Boys
Superkisseler

Intro:
e|-------------------------------------------------------------------------|
B|-------------------------------------------------------------------------|
G|-------------------------------------------------------------------------|
D|----3-3-----3---------3--3------3----------3-3------3----2-3-------------|
A|---3----3-3---3----3-------3-3-----3----3------3-3----3------------------|
E|-3-----------------------------------------------------------------------|


Verse:
e|---------------------------------------------------------------------------|
B|---------------------------------------------------------------------------|
G|---------------------------------------------------------------------------|
D|----3-3-----3-------------------------------3-3------3---------------------|
A|---3----3-3---3-------4--4------4--4-----3-------3-3---3-------------------|
E|-3-----------------5--------5-5------5-------------------------------------|
Suggest correction
Give kudos to tab author, rate the tab!
1 2 3 4 5
comments
print report bad tab
4 comments total. Showing first comments.
-1 reply
otavio152 10 Sep 25, 2009 10:34 PM

wow this tab is bad...keep trying though

0 reply
Superkisseler 793 Sep 26, 2009 10:56 AM

this tab goes right along with the actual bell kit music man. I just made it in to guitar so your guitar must be out of tune, because this is the music for it.

0 reply
buckanderson 433 May 16, 2012 06:28 PM

You're incorrect actually, it's wrong. Should be something like:

-----------------------------------
-----------------------------------
-----------------------------------
--3---3---------------------------
----3----3--4--5-----5------3--
---------------------5-----5------

That's not exact but it's closer than your tab

guest
You may want to rate the tab now too:
select rating
Wanna post a correction for this tab? Suggest correction