Oops, an error
Loading. Please wait.

I Dont Know Tab

version 2
version 2

Whole song

7,609 views 12 this week
3 commentsread comments
1 2 3 4 5
x 5
add to favorites
launch autoscroll
font size
0
reset
how to read this tab
guitar tuner
Autoscroll
slow
fast
+/-
esc
set tempo
stop
Difficulty
novice
-I Don't Know-

   [e----------------------------------]
   [b----------------------------------]
   [g--4--5--5--4--4-5--5--5--5--4--4-5]
   [d-5--5--3--3--3----2--2--1--1--1---]
   [a----------------------------------]
   [e----------------------------------]

      
      It is played through out
      the song.
      It sounds best on a 
      classic guitar.

      -marcel-
Suggest correction
comments
print report bad tab
3 comments total.
0 reply
marcelaguiar 629 Jan 03, 2007 09:26 AM

if playing
e|-------------------------
B|---5---5---5---4---4---5-
G|-2---2---1---1---1---1---
D|-------------------------
A|-------------------------
E|-------------------------
is too hard play this:
e|-----------------|
B|-----------------|
G|-----------------|
D|--5--5--5--4--4-5|
A|-7--7--6--6--6---|
E|-----------------|

+2 reply
shipon7 71 Feb 02, 2016 05:38 PM

[e----------------------------------]
[b-------------------1--1--1--0--0-1]
[g--4--5--5--4--4-5-----------------]
[d-5--5--3--3--3----2--2--1--1--1---]
[a----------------------------------]
[e----------------------------------]

0 reply
juliamshapiro 10 May 02, 2017 03:53 PM

[e----------------------------------]
[b----------------------------------]
[g--4--5--5--4--4-5--5--5--5--4--4-5]
[d-5--5--3--3--3--------------------]
[a-----------------7--7---6--6--6---]
[e----------------------------------]

guest
You may want to rate the tab now too:
select rating
Wanna post a correction for this tab? Suggest correction