Oops, an error
Loading. Please wait.

In 3S Tab

version 2
version 2

Whole song

1,808 views 1 this week
1 commentread comment
1 2 3 4 5
2 more votes to show rating
add to favorites
launch autoscroll
font size
0
reset
how to read this tab
guitar tuner
Autoscroll
slow
fast
+/-
esc
set tempo
stop
Help us to improve Ultimate-Guitar.com Take our survey!
×
#----------------------------------PLEASE NOTE--------------------------------#
#This file is the author's own work and represents their interpretation of the#
#song. You may only use this file for private study, scholarship, or research.#
#-----------------------------------------------------------------------------#

Date: Thu, 7 May 1998 17:51:51 -0400 (EDT)
From: "shelanu@erols.com" 
Subject: b/beastie_boys/in_3s.tab

In 3'S--Beastie Boys
Transcribed by, Erez    shelanu@erols.com

        This amazing example of the beauty of conflict/resolution in music
is found on the LPs "Check Your Head" and "The In Sounds From Way
Out"-instrumental.


Main progression>
Guitar must be up and down strumming and make it funky!
-8-8--9--8-8----8-8--11-11--
-8-8--9--8-8----8-8--10-10--
----------------------------
----------------------------
----------------------------
----------------------------

Bridge>
Then this part comes in after the Bass slows the song down!
----------------------------
--------4---------4---------
-3--5-5----3-3--5-------end on the --3--5--
----------------------------
----------------------------
----------------------------

that's as good as it gets without a Moog!

If you have any questions about this song or anything Beastie related E mail
me at shelanu@erols.com

peace,Erez K>A> E-mOnEy!

Suggest correction
Give kudos to tab author, rate the tab!
1 2 3 4 5
comments
print report bad tab
1 comment total.
0 reply
vomitingself 105 Feb 13, 2013 05:06 AM

Bridge
----------------------
--------3---------3---
-3--5-5----3-3--5-----
----------------------
----------------------
----------------------

guest
You may want to rate the tab now too:
select rating
Wanna post a correction for this tab? Suggest correction