Oops, an error
Loading. Please wait.

Make Some Noise Bass Tab

version 2
version 2

Whole song

3,739 views 12 this week
1 commentread comment
1 2 3 4 5
accurate
x 5
add to favorites
launch autoscroll
font size
0
reset
guitar tuner
Tab Pro tools
  • play this tab
  • loop segment
  • change instrument
  • show fretboard
  • metronome
Autoscroll
slow
fast
+/-
esc
set tempo
stop
Contributor
Difficulty
novice
-------------------------------------------------------------------------------
                             MAKE SOME NOISE - Beastie Boys
-------------------------------------------------------------------------------

Tabbed By : Dan
e-mail: dangerous_danny@hotmail.com

Tuning: Standard

Intro w/synth effect                               

G|----/9----7----5/6--5--4--2---/3------------------------------------------|
D|-----------------------------------5p4p3---2--0h1-0h1---------------------|
A|-------------------------------------------------------3/4---\3---\2------|
E|--------------------------------------------------------------------------|

Verse w/synth effect

G|--------------------------------------------------------------------------|
D|--------------------------------------------------------------------------|
A|-----------5--7------------------5------------5--7-------------------7----|
E|--5--8--5---------5--8--5--8--5------5--8--5----------5--8--5--8--5-------|



| /  slide up
| \  slide down
| h  hammer-on
| p  pull-off
| ~  vibrato
| +  harmonic
| x  Mute note
===============================================================================
comments
print report bad tab
1 comment total.
-1 reply
serhii.ibrahimov wrote on May 26 2015, 12:19 pm

Lack of accuracy. Tab incomplete. Tab incomplete. 2 0 w o o o o o o o o o o r d s 12 3 4 5 6

I want to post or [tab]
guest
You may want to rate the tab now too:
select rating
Please do not post tabs as comments. Select "correction" instead!