Oops, an error
Loading. Please wait.

Off The Grid Bass Tab

2,474 views 3 this week
no commentswrite comment
1 2 3 4 5
excellent!
x 3
add to favorites
launch autoscroll
font size
0
reset
guitar tuner
Autoscroll
slow
fast
+/-
esc
set tempo
stop
Help us to improve Ultimate-Guitar.com Take our survey!
×
first half:
g|-----------------|
d|----3--3-1-------|
a|-----------0-2-3-|
e|1----------------|

g|-----------------|
d|-----------------|
a|-----------0-2-3-|
e|1----------------|



second half:
g|--------------------------------|
d|--------------------------------|
a|--------------------------------|
e|8-8-8-8-8-8-8-8-8-8-8-8-8-8-8-8-|

g|--------------------------------|
d|--------------------------------|
a|6-6-6-6-6-6-6-6-8-8-8-8-8-8-8-8-|
e|--------------------------------|



By Skint
Suggest correction
Give kudos to tab author, rate the tab!
1 2 3 4 5
comments
print report bad tab
guest
You may want to rate the tab now too:
select rating
Wanna post a correction for this tab? Suggest correction