Oops, an error
Loading. Please wait.

Pow Bass Tab

version 2
version 2

Whole song

Interactive

2,182 views 1 this week
no commentswrite comment
1 2 3 4 5
2 more votes to show rating
add to favorites
launch autoscroll
font size
0
reset
guitar tuner
Autoscroll
slow
fast
+/-
esc
set tempo
stop
Help us to improve Ultimate-Guitar.com Take our survey!
×
Author
Difficulty
intermediate
Pow Bassline

Transcribed by Kaz Yamamura (Kaz3-6-0)




  H    Q  E S S
|-----------7h9-|------------|--------------------|------|
|---------------|------------|-9-7-5-(5)--(5)-----|------|
|---------------|------------|-----------------6--|-7----|
|-0-------------|-(0)--------|--------------------|------|
  W               +W           S S E +Q   +Q   Q    W


   4/4
    Gtr I
    E E S S S S S S S S +E  E
||----------------------------|
||o-----7-----5---------------|
||o-7-7---5-5---5-5-4-4-(4)-4S|
||----------------------------|


  E E S S S S +S  S E S S E   E E S S S S S S E E S S
|-----------------7-7-8-8-9-|--------------------------|
|-----7-7-8-9-(9)-----------|-----7-----5--------------|
|-7-7-----------------------|-7-7---5-5-----5-4-5-5-0--|
|---------------------------|--------------------------|


  E E S S S a S S S E S S E     E E Q H              E E E E E E E E
|-----------------7-7-8-8-9--||---------|----------|------------------|
|-----7-7-8-8S9-------------o||---------|----------|------------------|
|-7-7-----------------------o||---------|----------|-7-----7-----7----|
|----------------------------||-7-------|----------|---7-0---7-0---7--|
                                          W


  E E S S S S S S S S +E  E
|---------------------------|
|-----7-----5---------------|
|-7-7---5-5---5-5-4-4-(4)-4S|
|---------------------------|


  E E S S S S +S  S E S S E   E E S S S S S S E E S S
|-----------------7-7-8-8-9-|--------------------------|
|-----7-7-8-9-(9)-----------|-----7-----5--------------|
|-7-7-----------------------|-7-7---5-5-----5-4-5-5-0--|
|---------------------------|--------------------------|


  E E S S S a S S S E S S E   Wx5     H    Q  E E
|-----------------7-7-8-8-9-|-------|-------------|----|
|-----7-7-8-8S9-------------|-------|-------------|----|
|-7-7-----------------------|-------|-----------7-|----|
|---------------------------|-------|-------------|----|
  W


  E E S S S S S S S S +E  E
|---------------------------|
|-----7-----5---------------|
|-7-7---5-5---5-5-4-4-(4)-4S|
|---------------------------|


  E E S S S S +S  S E S S E   E E S S S S S S E E S S
|-----------------7-7-8-8-9-|--------------------------|
|-----7-7-8-9-(9)-----------|-----7-----5--------------|
|-7-7-----------------------|-7-7---5-5-----5-4-5-5-0--|
|---------------------------|--------------------------|


  E   E   S  S  S  a  S  S  S  E   S  S   E
|---------------------------7--7---8--8---9----|
|---------7--7--8--8S=9------------------------|
|-7---7----------------------------------------|
|----------------------------------------------|


    H.=H
    E E S S S S S S S S +E  E
||----------------------------|
||o-----7-----5---------------|
||o-7-7---5-5---5-5-4-4-(4)-4S|
||----------------------------|


  E E S S S S +S  S E S S E   E E S S S S S S E E S S
|-----------------7-7-8-8-9-|-------------------------|
|-----7-7-8-9-(9)-----------|-----7-----5-------------|
|-7-7-----------------------|-7-7---5-5-----5-4-5-5-0-|
|---------------------------|-------------------------|


  E   E   S  S  S  a  S  S  S  E   S  S   E
|---------------------------7--7---8--8---9----|
|---------7--7--8--8S=9------------------------|
|-7---7----------------------------------------|
|----------------------------------------------|


  E E S S S S S S S S +E  E
|---------------------------|
|-----7-----5---------------|
|-7-7---5-5---5-5-4-4-(4)-4S|
|---------------------------|


  E E S S S S +S  S E S S E   E E S S S S S S E E S S
|-----------------7-7-8-8-9-|--------------------------|
|-----7-7-8-9-(9)-----------|-----7-----5--------------|
|-7-7-----------------------|-7-7---5-5-----5-4-5-5-0--|
|---------------------------|--------------------------|


                                           Q=80
  E   E   S  S  S  a  S  S  S   E   S  S   E
|---------------------------7---7---8--8---9----|
|---------7--7--8--8S=9-------------------------|
|-7---7-----------------------------------------|
|-----------------------------------------------|


    E E S S S S S S S S +E  E
||----------------------------|
||o-----7-----5---------------|
||o-7-7---5-5---5-5-4-4-(4)-4S|
||----------------------------|


  E E S S S S +S  S E S S E   E E S S S S S S E E S S
|-----------------7-7-8-8-9-|-------------------------|
|-----7-7-8-9-(9)-----------|-----7-----5-------------|
|-7-7-----------------------|-7-7---5-5-----5-4-5-5-0-|
|---------------------------|-------------------------|


  E   E   S  S  S  a  S  S  S   E   S  S   E     8x
|---------------------------7---7---8--8---9-----||
|---------7--7--8--8S=9-------------------------o||
|-7---7-----------------------------------------o||
|------------------------------------------------||




--------------------------------------------------------------------------------


Duration Legend
---------------
W - whole; H - half; Q - quarter; E - 8th; S - 16th; T - 32nd; X - 64th; a - acciaccatura
+ - note tied to previous; . - note dotted; .. - note double dotted

Suggest correction
Give kudos to tab author, rate the tab!
1 2 3 4 5
comments
print report bad tab
guest
You may want to rate the tab now too:
select rating
Wanna post a correction for this tab? Suggest correction