Oops, an error
Loading. Please wait.

Rhymin And Stealin tab

1,192 views 3 this week
2 commentsread comments
1 2 3 4 5
2 more votes to show rating
add to favorites
×
Save as Personal and add changes to this tab that will be seen only by you. Learn more ›
×
You can save this tab as Personal to edit and correct it or add notes. All changes will be seen only by you. Learn more »
launch autoscroll
font size
0
reset
how to read this tab
guitar tuner
edit
Autoscroll
slow
fast
+/-
esc
set tempo
stop
Author
Difficulty
 It's a pretty simple song and pretty much goes like this the whole time



|------------X---------------------------------------------|
|------------X---------------------------------------------|
|------------X---------------------------------------------|
|------------X--5--4--3----3--3--7-------------------------|
|----7----7--X--7--6--5----5--5--5-------------------------|
|----5----5--X---------------------------------------------|

And one part goes like this

|---------------------------------------------------------|
|---------------------------------------------------------|
|---------------------------------------------------------|
|---------------------------------------------------------|
|----7----7-----------------------------------------------|
|----5----X-----------------------------------------------|

            
            
Suggest correction
Creating personal tab
Creating personal tab
You can edit any tab online and save it as your Personal.

You can edit, replace or remove any tab part or add personal notes – all changes will be seen only by you.

Personal tabs can be accessed anytime from any device, even offline.
Learn more »
Give kudos to tab author, rate the tab!
1 2 3 4 5
comments
print report bad tab
2 comments total.
+2 reply
vomitingself 105 Jul 01, 2013 08:54 AM

try this
|------------X---------------------------|
|------------X---------------------------|
|------------X---------------------------|
|----2----2--X--7/6/5--5/6/7-------------|
|----2----2--X--7/6/5--5/6/7-------------|
|----0----0--X--5/4/3--3/4/5-------------|

or original riff from Black Sabbath's Sweet Leaf, lol

0 reply
Burfdawg 10 Feb 16, 2015 12:27 PM

vomit, you right, just everything up a string.

guest
You may want to rate the tab now too:
select rating
Wanna post a correction for this tab? Suggest correction