Oops, an error
Loading. Please wait.

Sabotage Tab

version 1
version 1

Intro

Whole song

Interactive

35,836 views 27 this week
4 commentsread comments
1 2 3 4 5
x 19
add to favorites
launch autoscroll
font size
0
reset
how to read this tab
guitar tuner
backing track
0:00
0:00
×
Best way to learn
"Sabotage"
Autoscroll
slow
fast
+/-
esc
set tempo
stop
Author
Difficulty
novice
-------------------------------------------------------------------------------
                             SABOTAGE - Beastie Boys
-------------------------------------------------------------------------------
Tabbed by: Tom L
Email:

Tuning: Db Ab Db Gb Bb Eb

There wasn't a tab for the guitar part for Sabotage, so I decided to tab it out, it's 
or less the same throughout

eb|---------------------------------------------------------------------------|
Bb|---------------------------------------------------------------------------|
Gb|---------------------------------------------------------------------------|
Db|----7-7---------------7-7--------------------------------------------------|
Ab|----7-7-5*-5*-5*-5*---7-7-5*-5*-5*-5*-5*-5*-5*-5*--------------------------|
Eb|----7-7---------------7-7--------------------------------------------------|

First tab, so don't be too harsh =]

| /  slide up
| \  slide down
| h  hammer-on
| p  pull-off
| ~  vibrato
| *  harmonic
| x  Mute note
===============================================================================
Suggest correction
comments
print report bad tab
4 comments total. Showing first comments.
+1 reply
spoing24 20 Jun 05, 2008 08:33 AM

nice tab dude. you totally stole it off of youtube.

0 reply
iklguitar 10 Feb 02, 2009 03:03 PM

you suck

-1 reply
80smetalfreke 735 Aug 21, 2009 06:23 PM

i think it goes like this

e-------------------------
b-------------------------
g-------------------------
d-6-6-------------6-------
a-6-6-------------6-------
e-4-4-4-4-4-4-4-4-4-------
* * * * * *
* harmonic

guest
You may want to rate the tab now too:
select rating
Wanna post a correction for this tab? Suggest correction