Oops, an error
Loading. Please wait.

Sabotage Bass Tab

version 2
version 2

Whole song

Interactive

55,442 views 189 this week
4 commentsread comments
1 2 3 4 5
x 12
add to favorites
launch autoscroll
font size
0
reset
guitar tuner
Autoscroll
slow
fast
+/-
esc
set tempo
stop
Help us to improve Ultimate-Guitar.com Take our survey!
×
Author
Difficulty
novice
-------------------------------------------------------------------------------
                             Sabotage - Beastie Boys
-------------------------------------------------------------------------------

Tabbed By : Handt
e-mail: Handt@mailbox.sc.edu

Tuning: Standard

NOTE! There are parts where rhythm switches up a bit. 
This is especially true of the area around 1:52.
It should be easy to find these spots and work around them. 

Song structure: 

Part                    Time in song

Regular riff    (0:00 - 0:16)
Solo part       (0:17 - 0:20)
Regular riff    (0:20 - 0:50)
Solo part 2     (0:50 - 0:52)
Regular riff    (0:52 - 1:03)
Silence         (1:03 - 1:13)
Solo part       (1:13 - 1:15)
Regular riff    (1:15 - 1:37)
Interlude       (1:37 - 1:50)
Solo part 2     (1:50 - 1:52)
Regular riff    (1:52 - 2:14)
Solo part 2     (2:14 - 2:15)
Weird Melody    (2:15 - 2:27)
Regular riff    (2:27 - 2:50)
BAM BAM...BAM BAM (2:50 - 2:52)


During some bits where bass seems to drop, volume swell while 
playing the eleventh fret on the A string


[Regular riff] 
G|-------11-------11-------11------11--------11---------------|
D|------------------------------------------------------------|
A|-11-11----11-11----11-11----11-11---11--11------------------|
E|------------------------------------------------------------|

[Solo part]
G|-------------4----------------------------------------------|
D|-------1-4-1------------------------------------------------|
A|---2-4------------------------------------------------------|
E|-4----------------------------------------------------------|

[Solo Part 2]
G|-----------4/6----------------------------------------------|
D|-----1-4-1--------------------------------------------------|
A|---2--------------------------------------------------------|
E|-4----------------------------------------------------------|

[Interlude]
(LISTEN FOR RHYTHM)
G|------------11------11-------11-------11-------11-------11--|
D|------------------------------------------------------------|
A|------11-11---11-11----11-11----11-11----11-11----11-11-----|
E|-2/11-------------------------------------------------------|

[Weird Melody]
G|-13---12---11---10---13---12---11--------------4-----------|
D|-----------------------------------------1-4-1-------------|
A|-------------------------------------2-4-------------------|
E|-----------------------------------4-----------------------|

[BAM BAM ... BAM BAM]
G|---------------------------------------------------------------------------|
D|---------------------------------------------------------------------------|
A|---------------------------------------------------------------------------|
E|-4-4----4-4----------------------------------------------------------------|
 
************************************

| /  Slide up

************************************
Suggest correction
comments
print report bad tab
4 comments total. Showing first comments.
+2 reply
xaioxaio11 10 Jul 15, 2008 11:01 AM

wow... this tab was one of the worst ive ever seen, i think you just closed your eyes and played random frets and called it sabatoge.

0 reply
housedimir66 10 Jan 06, 2009 09:20 AM

the main riff is right, the fills are way wrong and i've yet to try the rest of the song but from what xaioxaio said i doubt it's right

-2 reply
Jordo141 473 May 27, 2011 02:46 PM

This is the best version of this tab... it's run through distortion ppl jeeze! :P

guest
You may want to rate the tab now too:
select rating
Wanna post a correction for this tab? Suggest correction