Oops, an error
Loading. Please wait.

Sabotage Bass Tab

version 3
version 3

Whole song

Interactive

19,545 views 15 this week
2 commentsread comments
1 2 3 4 5
please rate
add to favorites
launch autoscroll
font size
0
reset
guitar tuner
Tab Pro tools
  • play this tab
  • loop segment
  • change instrument
  • show fretboard
  • metronome
×
Best way to learn
"Sabotage"
Autoscroll
slow
fast
+/-
esc
set tempo
stop
Contributor
Difficulty
Tuning
novice
D G C F A D
-----------------------------------------------------------------------------
			     SABOTAGE - Beastie Boys
-----------------------------------------------------------------------------

Tabbed By : Dan
e-mail: dangerous_danny@hotmail.com

Tuning: D Tuning DADG

Use this tab as a guide. It's not 100% accurate but it should be enough to get you started. 

Intro/Main riff

G|-------11-------11-------11-------11-------11-11-| x5
D|-------------------------------------------------|
A|-11-11----11-11----11-11----11-11----11-11-------|
D|-------------------------------------------------|

G|-------11-------11--------------------------4----| x1
D|--------------------------------------4--6-------|
D|-11-11----11-11----11-11--------4--6-------------|
A|--------------------------4--6-------------------|


Variation on Main riff @ 00:40

G|-------11-------11-------11-------11--11---11----|
D|-------------------------------------------------|
A|-11-11----11-11----11-11----11-11----------------|
D|-------------------------------------------------|

After guitar lead breakdown @ 01:12
    
    bend 1/2 step
G|--15-------------------------------------------4-|
D|-------------------------------------------4-----|
A|-----------------------------------4---6---------|
D|---------------------------4---6-----------------|


                                            slide
G|-------11-------11-------------------------------|
D|------------------------------------------4-/----|
A|-11-11----11-11----11-11------------------4-/----|
D|-------------------------------------------------|

Mid song riff variation. There are a few slight changes so listen to work out timing.

G|-------------11----------11-------11-------11-11-|
D|-------------------------------------------------|
A|-11----11-11-------11-11----11-11----11-11-------|
D|-------------------------------------------------|

G|-------------11-------11---13-11-----------------|
D|----------------------------------13-11----------|
A|-11----11-11----11-11-------------------13-12-11-|
E|-------------------------------------------------|

@ 02:15 not sure about this part

G|---------13----------12---------11---------10----|
D|-----13----------12---------11---------10--------|
A|-11----------10----------9----------8------------|
E|-------------------------------------------------|

mix it up with some of these and it sounds pretty good

G|---------13---------12--------11--------10-------|
D|-------------------------------------------------|
A|-11--11-----10--10------9--9------8--8-----------|
E|-------------------------------------------------|

Outro riff

G|-------------11----------11--------11---------11-|
D|-------------------------------------------------|
A|-11----11-11----11-11-11----11--11----11--11-----|
E|-------------------------------------------------|

G|-------------------------------------------------|
D|-------------------------------------------------|
A|-11--11-----------------11--11-------------------|
E|-------------------------------------------------|





| /  slide up
| \  slide down
| h  hammer-on
| p  pull-off
| ~  vibrato
| +  harmonic
| x  Mute note
=============================================================================
comments
We did not receive enough feedback on this tab! Please rate:
print report bad tab
1 2 3 4 5
2 comments total. show 1 bad comment
+3 reply
DQ32 wrote on January 20 2013, 02:00 pm

Not D tuning. It's Drop D.

I want to post or [tab]
guest
You may want to rate the tab now too:
select rating
Please do not post tabs as comments. Select "correction" instead!